Song name
# A B C D E F G H I J K L M N O P Q R S T U V W X Y Z

Kinks - Sunny Afternoon tab

Hi, this song is really catchy and got some really good guitar bits in. The main
strumming pattern is; 1, 2 & 3, 4 &.
Enjoy!
Intro: Dm                 A
      ---1---1---1---0-----0-------0-0----------|
      ---3---3---3---3-----2---2---2-2----------|
      ---2---2---0---0-----2---2---2-2----------|
      -0-----0---0---0-----2---2---2-2----------|
      -----3---2---1-----0-----0---0-0----------|
      -----------------------3---1--------------|

              Dm                      C7
Verse 1: The tax-man's taken all my dough
              F               C7
         And left me in my stately home
         A7
         Lazing on a
         ---------------|
         ---------------|
         ---------------|
         ---------------|
         ---------------|
         -3-3-1-0-------|
         Sunny after...
         Dm                 C7
         Noon. And I can't sail my yacht
               F          C7
         He's taken everything I've got
         A7
         All I've got's this
         -------------1----1-1-------1---------1--------------|
         ------------3----3---3-----3-----2---3---------------|
         -----------2----2-----2---2-----2---2----------------|
         ----------0----0-------0-0-----2---0-----------------|
         ------------------------------0---------0-2-4--------|
         -3-3-1-0---------------------------------------------|
         Sunny afternoon.

          D7                                   G7
Chorus 1: Save me, Save me, Save me from this squeeze
                   C7                            F    A7
          I got a big fat Mama, trying to break me
                Dm               Dm/C
          And I love to live so pleasantly
          Dm                G7  C7
          Live this life of luxury
          F            A7
          Lazing on a sunny after...
          Dm
          ---1---1---1---0---|
          ---3---3---3---3---|
          ---2---2---0---0---|
          -0-----0---0---0---|
          -----3---2---1-----|
          -------------------|
          Noon
                  Dm       A7
          In the summertime. In the...
          Dm                 A
          ---1---1---1---0-----0-------0-0----------|
          ---3---3---3---3-----2---2---2-2----------|
          ---2---2---0---0-----2---2---2-2----------|
          -0-----0---0---0-----2---2---2-2----------|
          -----3---2---1-----0-----0---0-0----------|
          -----------------------3---1--------------|
          Summertime.

             Dm                           C7
Verse 2: My Girlfriend's run off with my car
              F               C7
         And gone back to her Ma and Pa
         A7
         Telling tales of...
         ---------------|
         ---------------|
         ---------------|
         ---------------|
         ---------------|
         -3-3-1-0-------|
         Drunkenness and...
         Dm                      C7
         Cruelty. Well now I'm sitting here
         F             C7
         Sipping at my ice-cold beer
         A7
         Lazing on a
         -------------1----1-1-------1---------1--------------|
         ------------3----3---3-----3-----2---3---------------|
         -----------2----2-----2---2-----2---2----------------|
         ----------0----0-------0-0-----2---0-----------------|
         ------------------------------0---------0-2-4--------|
         -3-3-1-0---------------------------------------------|
         Sunny afternoon.

          D7                              G7
Chorus 2: Help me, help me, help me sail away
                   C7                               F    A7
          Give me two good reasons why I ought to stay
                  Dm               Dm/C
          Cause I love to live so pleasantly
          Dm                G7  C7
          Live this life of luxury
          F            A7
          Lazing on a sunny after...
          Dm
          ---1---1---1---0---|
          ---3---3---3---3---|
          ---2---2---0---0---|
          -0-----0---0---0---|
          -----3---2---1-----|
          -------------------|
          Noon
                  Dm       A7
          In the summertime. In the...
          Dm                 A
          ---1---1---1---0-----0-------0-0----------|
          ---3---3---3---3-----2---2---2-2----------|
          ---2---2---0---0-----2---2---2-2----------|
          -0-----0---0---0-----2---2---2-2----------|
          -----3---2---1-----0-----0---0-0----------|
          -----------------------3---1--------------|
          Summertime.

        D7                                   G7
Chorus 1: Save me, Save me, Save me from this squeeze
                   C7                            F    A7
          I got a big fat Mama, trying to break me
                Dm               Dm/C
          And I love to live so pleasantly
          Dm                G7  C7
          Live this life of luxury
          F            A7
          Lazing on a sunny after...
          Dm
          ---1---1---1---0---|
          ---3---3---3---3---|
          ---2---2---0---0---|
          -0-----0---0---0---|
          -----3---2---1-----|
          -------------------|
          Noon
                  Dm       A7
          In the summertime. In the...
          Dm                 A
          ---1---1---1---0-----0-------0-0----------|
          ---3---3---3---3-----2---2---2-2----------|
          ---2---2---0---0-----2---2---2-2----------|
          -0-----0---0---0-----2---2---2-2----------|
          -----3---2---1-----0-----0---0-0----------|
          -----------------------3---1--------------|
          Summertime.

And that's it! Hope you enjoyed. Please don't hesitate to rate/make a comment or 
some of my other stuff.
John Lennon: Imagine
Fleetwood Mac: Dreams
Lily Allen: 22
Amy MacDonald: Mr. Rock and Roll
And I'm hoping to make many more.
Thanks!
Tap to rate this tab
# A B C D E F G H I J K L M N O P Q R S T U V W X Y Z