Song name
# A B C D E F G H I J K L M N O P Q R S T U V W X Y Z

Kinks - Waterloo Sunset tab

-------------------------------------------------------------------------------
                          WATERLOO SUNSET Ė The Kinks
                                 (Ray Davies)
-------------------------------------------------------------------------------

Tabbed by: varannion
Email:     dm_hughes1@hotmail.com


Tuning: standard


      B             B/A             B/G#          B/F#
e|--------------------------------|-----------------------------|
B|----4--4---4--4---4--4---4--4---|-4--4---4--4---4--4---4--4---|
G|----4--4---4--4---4--4---4--4---|-4--4---4--4---4--4---4--4---|
D|----4--4---4--4---4--4---4--4---|-4--4---4--4---4--4---4--4---|
A|----2--2---2--2---2--2---2--2---|-2--2---2--2---2--2---2--2---|
E|--------------------------------|-----------------------------|
 |    |---------------------- palm mute -----------------------
e|--------------------------------|-----------------------------|
B|--------------------------------|-----------------------------|
G|--------------------------------|-----------------------------|
D|--------------------------------|-----------------------------|
A|----2--2-2-2--2-2-2--2-2-2--2-2-|-2--2-2-2--2-2-2--2-2-2--2-2-|
E|--------------------------------|-----------------------------|



      B/E           B/D#            B/C#         B
e|--------------------------------|---------------------------|
B|----4--4---4--4---4--4---4--4---|-4--4---4--4--4--4--4--4---|
G|----4--4---4--4---4--4---4--4---|-4--4---4--4--4--4--4--4---|
D|----4--4---4--4---4--4---4--4---|-4--4---4--4--4--4--4--4---|
A|----2--2---2--2---2--2---2--2---|-2--2---2--2--2--2--2--2---|
E|--------------------------------|---------------------------|
 |  -------------- palm mute --------------|
e|--------------------------------|---------------------------|
B|--------------------------------|--------------------5------|
G|--------------------------------|-------------/6--4----/6---|
D|--------------------------------|---------------------------|
A|----2--2-2-2--2-2-2--2-2-2--2-2-|-2--2-2-2------------------|
E|--------------------------------|---------------------------|



      E                                B7
e|----0------0---0---0---0---0---0--|--2------2---2---2---2---2---2--|
B|----0------0---0---0---0---0---0--|--0------0---0---0---0---0---0--|
G|----1------1---1---1---1---1---1--|--2------2---2---2---2---2---2--|
D|----2------2---2---2---2---2---2--|--1------1---1---1---1---1---1--|
A|----2------2---2---2---2---2---2--|--2------2---2---2---2---2---2--|
E|----0------0---0---0---0---0---0--|--------------------------------|
 |
e|----------------------------------|--------------------------------|
B|----------------------------------|--------------------------------|
G|---(6)--4------------------4------|--------------------------------|
D|---------------4--/6---4------/6--|-(6)--4-------------------6--4--|
A|----------------------------------|-----------------2--4--2--------|
E|----------------------------------|--------------------------------|



      A
e|----0------0---0---0---0---0---0--|--0------0---0---0---0---0---0--|
B|----2------2---2---2---2---2---2--|--2------2---2---2---2---2---2--|
G|----2------2---2---2---2---2---2--|--2------2---2---2---2---2---2--|
D|----2------2---2---2---2---2---2--|--2------2---2---2---2---2---2--|
A|----0------0---0---0---0---0---0--|--0------0---0---0---0---0---0--|
E|----------------------------------|--------------------------------|
 |                ~~~~~~~~
e|----------------------------------|--------------------------------|
B|----------------------------------|--------------------------------|
G|----------------------------------|--------------------------------|
D|----------------------------------|--------------------------------|
A|--------2------4------------------|--------------------------------|
E|----------------------------------|--------------------------------|

  Verse 1

      E                                B7
e|----0------0---0---0---0---0---0--|--2------2---2---2---2---2---2--|
B|----0------0---0---0---0---0---0--|--0------0---0---0---0---0---0--|
G|----1------1---1---1---1---1---1--|--2------2---2---2---2---2---2--|
D|----2------2---2---2---2---2---2--|--1------1---1---1---1---1---1--|
A|----2------2---2---2---2---2---2--|--2------2---2---2---2---2---2--|
E|----0------0---0---0---0---0---0--|--------------------------------|
 |
e|----------------------------------|--------------------------------|
B|----------------------------------|--------------------------------|
G|----------------------------------|--------------------------------|
D|----------------------------------|--------------------------------|
A|----------------------------------|--------------------------------|
E|----------------------------------|--------------------------------|



      A                                   A
e|----0------0---0---0---0---0---0--|--0------0---0---0---0---0---0--|
B|----2------2---2---2---2---2---2--|--2------2---2---2---2---2---2--|
G|----2------2---2---2---2---2---2--|--2------2---2---2---2---2---2--|
D|----2------2---2---2---2---2---2--|--2------2---2---2---2---2---2--|
A|----0------0---0---0---0---0---0--|--0------0---0---0---0---0---0--|
E|----------------------------------|--------------------------------|
 |
e|----------------------------------|--------------------------------|
B|-----------------------5----------|--------------------------------|
G|-----------2------/6------6\4-----|---------------------4----------|
D|-------------------------------7--|-----------------6-------6------|
A|----------------------------------|---------7-------------------7--|
E|----------------------------------|--------------------------------|



      E                                B7
e|----0------0---0---0---0---0---0--|--2------2---2---2---2---2---2--|
B|----0------0---0---0---0---0---0--|--0------0---0---0---0---0---0--|
G|----1------1---1---1---1---1---1--|--2------2---2---2---2---2---2--|
D|----2------2---2---2---2---2---2--|--1------1---1---1---1---1---1--|
A|----2------2---2---2---2---2---2--|--2------2---2---2---2---2---2--|
E|----0------0---0---0---0---0---0--|--------------------------------|
 |               |------------------- palm mute -------------------| 
e|----------------------------------|--------------------------------|
B|----------------------------------|--------------------------------|
G|-----------------------4----------|--------------------------------|
D|-------------------6-------6------|-----------------4---6---4------|
A|---------------7---------------6--|---------6---6---------------4--|
E|----------------------------------|--------------------------------|



      A                                A
e|----0------0---0---0---0---0---0--|--0------0---0---0---0---0---0--|
B|----2------2---2---2---2---2---2--|--2------2---2---2---2---2---2--|
G|----2------2---2---2---2---2---2--|--2------2---2---2---2---2---2--|
D|----2------2---2---2---2---2---2--|--2------2---2---2---2---2---2--|
A|----0------0---0---0---0---0---0--|--0------0---0---0---0---0---0--|
E|----------------------------------|--------------------------------|
 |
e|----------------------------------|--------------------------------|
B|-----------------------5----------|--------------------------------|
G|-----------2------/6------6\4-----|--------------------------------|
D|-------------------------------7--|--------------------------------|
A|----------------------------------|--------------------------------|
E|----------------------------------|--------------------------------|



      F#m                              C#/E#
e|----2------2---2---2---2---2---2--|--1------1---1---1---1---1---1--|
B|----2------2---2---2---2---2---2--|--2------2---2---2---2---2---2--|
G|----2------2---2---2---2---2---2--|--1------1---1---1---1---1---1--|
D|----4------4---4---4---4---4---4--|--3------3---3---3---3---3---3--|
A|----4------4---4---4---4---4---4--|--4------4---4---4---4---4---4--|
E|----2------2---2---2---2---2---2--|--------------------------------|
 |
e|----------------------------------|--------------------------------|
B|----------------------------------|--------------------------------|
G|----------------------------------|--------------------------------|
D|----------------------------------|--------------------------------|
A|----------------------------------|--------------------------------|
E|----------------------------------|--------------------------------|



      A/C#                             B7
e|----------------------------------|--2------2---2---2---2---2---2--|
B|----2------2---2---2---2---2---2--|--0------0---0---0---0---0---0--|
G|----2------2---2---2---2---2---2--|--2------2---2---2---2---2---2--|
D|----2------2---2---2---2---2---2--|--1------1---1---1---1---1---1--|
A|----4------4---4---4---4---4---4--|--2------2---2---2---2---2---2--|
E|----------------------------------|--------------------------------|
 |
e|----------------------------------|--------------------------------|
B|----------------------------------|--------------------------------|
G|----------------------------------|--------------------------------|
D|----------------------------------|--------------------------------|
A|----------------------------------|--------------------------------|
E|----------------------------------|--------------------------------|



      E                                B7
e|----0------0---0---0---0---0---0--|--2------2---2---2---2---2---2--|
B|----0------0---0---0---0---0---0--|--0------0---0---0---0---0---0--|
G|----1------1---1---1---1---1---1--|--2------2---2---2---2---2---2--|
D|----2------2---2---2---2---2---2--|--1------1---1---1---1---1---1--|
A|----2------2---2---2---2---2---2--|--2------2---2---2---2---2---2--|
E|----0------0---0---0---0---0---0--|--------------------------------|
 |   |------------------------- palm mute -------------------------| 
e|----------------------------------|--------------------------------|
B|----------------------------------|--------------------------------|
G|-----------------------4----------|--------------------------------|
D|-------------------6-------6------|-----------------4---6---4------|
A|----7------7---7---------------6--|---------6---6---------------4--|
E|----------------------------------|--------------------------------|



      A                                               A   G#m     F#
e|----0------0---0---0---0---0---0--|--0------0---0---0---4---x---2---|
B|----2------2---2---2---2---2---2--|--2------2---2---2---4---x---2---|
G|----2------2---2---2---2---2---2--|--2------2---2---2---4---x---3---|
D|----2------2---2---2---2---2---2--|--2------2---2---2---6---x---4---|
A|----0------0---0---0---0---0---0--|--0------0---0---0---6---x---4---|
E|----------------------------------|---------------------4---x---2---|
 |
e|----------------------------------|---------------------------------|
B|-----------------------5----------|---------------------------------|
G|-----------2------/6------6\4-----|---------------------------------|
D|-------------------------------7--|-----------------2-----------4-4-|
A|----------------------------------|-----------------0-----------4-4-|
E|----------------------------------|---------------------4-------2-2-|




e|----2------2---2---2---2---2---2--|--2------2---2---2---2---2---2--|
B|----2------2---2---2---2---2---2--|--2------2---2---2---2---2---2--|
G|----3------3---3---3---3---3---3--|--3------3---3---3---3---3---3--|
D|----4------4---4---4---4---4---4--|--4------4---4---4---4---4---4--|
A|----4------4---4---4---4---4---4--|--4------4---4---4---4---4---4--|
E|----2------2---2---2---2---2---2--|--2------2---2---2---2---2---2--|
 |
e|-----------2---------------2-------|------------2-----------2-------|
B|-----------2---------------2-------|------------2-----------2-------|
G|-----------3---------------3-------|------------3-----------3-------|
D|----4------------------4-----------|-----4--4-----------4-----------|
A|----4---------4--4--4--4-------4-4-|--4--4--4-------4---4-------0---|
E|----2------------------2-----------|-----2--2-----------2-----------|



      B                                E5/B           A   G#m     F#
e|----7------7---7---7---7---7---7--|--7------7---7---5---4---x---2---|
B|----7------7---7---7---7---7---7--|--9------9---9---5---4---x---2---|
G|----8------8---8---8---8---8---8--|--9------9---9---6---4---x---3---|
D|----9------9---9---9---9---9---9--|--9------9---9---7---6---x---4---|
A|----9------9---9---9---9---9---9--|--7------7---7---7---6---x---4---|
E|----7------7---7---7---7---7---7--|--7------7---7---5---4---x---2---|
 |
e|-----------7---------------7------|---------------------------------|
B|-----------7---------------7------|---------------------------------|
G|-----------8---------------8------|--9------9-----------------------|
D|----9--9---------------9-------x--|--9------9-------2-------x-x-4-4-|
A|----9--7-------9---9---9-------x--|--7------7-------0-------x-x-4-4-|
E|----7--7---------------7-------x--|--7------7-----------4---x-x-2-2-|




e|----2------2---2---2---2---2---2---|--2------2---2---2---2---2---2---|
B|----2------2---2---2---2---2---2---|--2------2---2---2---2---2---2---|
G|----3------3---3---3---3---3---3---|--3------3---3---3---3---3---3---|
D|----4------4---4---4---4---4---4---|--4------4---4---4---4---4---4---|
A|----4------4---4---4---4---4---4---|--4------4---4---4---4---4---4---|
E|----2------2---2---2---2---2---2---|--2------2---2---2---2---2---2---|
 |
e|---------------------------2-------|---------2-----------------------|
B|---------------------------2-------|---------2-----------------------|
G|----3----------------------3-------|---------3-------3---3-----------|
D|----4------4-------4---4-----------|--4--4-----------4---4---4-------|
A|----4------4---4---4---4-------x-4-|--4--4-------x-4-4---4---4---x-x-|
E|----2------2-------2---2-------x-2-|--2--2-------x-2-2---2-------x-x-|



      B             B/A             B/G#          B/F#
e|--------------------------------|-----------------------------|
B|----4--4---4--4---4--4---4--4---|-4--4---4--4---4--4---4--4---|
G|----4--4---4--4---4--4---4--4---|-4--4---4--4---4--4---4--4---|
D|----4--4---4--4---4--4---4--4---|-4--4---4--4---4--4---4--4---|
A|----2--2---2--2---2--2---2--2---|-2--2---2--2---2--2---2--2---|
E|--------------------------------|-----------------------------|
 |    |---------------------- palm mute -----------------------
e|--------------------------------|-----------------------------|
B|--------------------------------|-----------------------------|
G|--------------------------------|-----------------------------|
D|--------------------------------|-----------------------------|
A|----2--2-2-2--2-2-2--2-2-2--2-2-|-2--2-2-2--2-2-2--2-2-2--2-2-|
E|--------------------------------|-----------------------------|



      B/E           B/D#            B/C#          B
e|--------------------------------|-----------------------------|
B|----4--4---4--4---4--4---4--4---|-4--4---4--4---4--4---4--4---|
G|----4--4---4--4---4--4---4--4---|-4--4---4--4---4--4---4--4---|
D|----4--4---4--4---4--4---4--4---|-4--4---4--4---4--4---4--4---|
A|----2--2---2--2---2--2---2--2---|-2--2---2--2---2--2---2--2---|
E|--------------------------------|-----------------------------|
 |  --------------------- palm mute ---------------------|
e|--------------------------------|-----------------------------|
B|--------------------------------|-----------------------------|
G|--------------------------------|-----------------------------|
D|--------------------------------|-----------------------------|
A|----2--2-2-2--2-2-2--2-2-2--2-2-|-2--2-2-2--2-2-2--2-2-2------|
E|--------------------------------|-----------------------------|

  Verse 2

      E                                B7
e|----0------0---0---0---0---0---0--|--2------2---2---2---2---2---2--|
B|----0------0---0---0---0---0---0--|--0------0---0---0---0---0---0--|
G|----1------1---1---1---1---1---1--|--2------2---2---2---2---2---2--|
D|----2------2---2---2---2---2---2--|--1------1---1---1---1---1---1--|
A|----2------2---2---2---2---2---2--|--2------2---2---2---2---2---2--|
E|----0------0---0---0---0---0---0--|--------------------------------|
 |               |------------------- palm mute -------------------|
e|----------------------------------|--------------------------------|
B|----------------------------------|--------------------------------|
G|-----------------------4----------|--------------------------------|
D|-------------------6-------6------|------------------4---6---4-----|
A|---------------7---------------6--|--------------6--------------4--|
E|----------------------------------|--------------------------------|



      A                                   A
e|----0------0---0---0---0---0---0--|--0------0---0---0---0---0---0--|
B|----2------2---2---2---2---2---2--|--2------2---2---2---2---2---2--|
G|----2------2---2---2---2---2---2--|--2------2---2---2---2---2---2--|
D|----2------2---2---2---2---2---2--|--2------2---2---2---2---2---2--|
A|----0------0---0---0---0---0---0--|--0------0---0---0---0---0---0--|
E|----------------------------------|--------------------------------|
 |
e|----------------------------------|--------------------------------|
B|-----------------------5----------|--------------------------------|
G|-----------2------/6------6\4-----|---------------------4----------|
D|-------------------------------7--|-----------------6-------6------|
A|----------------------------------|-------4/7-------------------7--|
E|----------------------------------|--------------------------------|



      E                                B7
e|----0------0---0---0---0---0---0--|--2------2---2---2---2---2---2--|
B|----0------0---0---0---0---0---0--|--0------0---0---0---0---0---0--|
G|----1------1---1---1---1---1---1--|--2------2---2---2---2---2---2--|
D|----2------2---2---2---2---2---2--|--1------1---1---1---1---1---1--|
A|----2------2---2---2---2---2---2--|--2------2---2---2---2---2---2--|
E|----0------0---0---0---0---0---0--|--------------------------------|
 |                                               |--- palm mute ---| 
e|----------------------------------|--------------------------------|
B|----------------------------------|--------------------------------|
G|----------------------------------|--------------------------------|
D|----------------------------------|-----------------4---6---4------|
A|----------------------------------|-------------6---------------4--|
E|----------------------------------|--------------------------------|



      A
e|----0------0---0---0---0---0---0--|--0------0---0---0---0---0---0--|
B|----2------2---2---2---2---2---2--|--2------2---2---2---2---2---2--|
G|----2------2---2---2---2---2---2--|--2------2---2---2---2---2---2--|
D|----2------2---2---2---2---2---2--|--2------2---2---2---2---2---2--|
A|----0------0---0---0---0---0---0--|--0------0---0---0---0---0---0--|
E|----------------------------------|--------------------------------|
 |
e|----------------------------------|--------------------------------|
B|-----------------------5----------|--------------------------------|
G|-----------2------/6------6\4-----|--------------------------------|
D|-------------------------------7--|--------------------------------|
A|----------------------------------|--------------------------------|
E|----------------------------------|--------------------------------|



      F#m                              C#/E#
e|----2------2---2---2---2---2---2--|--1------1---1---1---1---1---1--|
B|----2------2---2---2---2---2---2--|--2------2---2---2---2---2---2--|
G|----2------2---2---2---2---2---2--|--1------1---1---1---1---1---1--|
D|----4------4---4---4---4---4---4--|--3------3---3---3---3---3---3--|
A|----4------4---4---4---4---4---4--|--4------4---4---4---4---4---4--|
E|----2------2---2---2---2---2---2--|--------------------------------|
 |
e|----------------------------------|--------------------------------|
B|----------------------------------|--------------------------------|
G|----------------------------------|--------------------------------|
D|----------------------------------|--------------------------------|
A|----------------------------------|--------------------------------|
E|----------------------------------|--------------------------------|



      A/C#                             B7
e|----------------------------------|--2------2---2---2---2---2---2--|
B|----2------2---2---2---2---2---2--|--0------0---0---0---0---0---0--|
G|----2------2---2---2---2---2---2--|--2------2---2---2---2---2---2--|
D|----2------2---2---2---2---2---2--|--1------1---1---1---1---1---1--|
A|----4------4---4---4---4---4---4--|--2------2---2---2---2---2---2--|
E|----------------------------------|--------------------------------|
 |
e|----------------------------------|--------------------------------|
B|----------------------------------|--------------------------------|
G|----------------------------------|--------------------------------|
D|----------------------------------|--------------------------------|
A|----------------------------------|--------------------------------|
E|----------------------------------|--------------------------------|



      E                                B7
e|----0------0---0---0---0---0---0--|--2------2---2---2---2---2---2--|
B|----0------0---0---0---0---0---0--|--0------0---0---0---0---0---0--|
G|----1------1---1---1---1---1---1--|--2------2---2---2---2---2---2--|
D|----2------2---2---2---2---2---2--|--1------1---1---1---1---1---1--|
A|----2------2---2---2---2---2---2--|--2------2---2---2---2---2---2--|
E|----0------0---0---0---0---0---0--|--------------------------------|
 |                  |------------------ palm mute -----------------| 
e|----------------------------------|--------------------------------|
B|----------------------------------|--------------------------------|
G|-----------------------4----------|--------------------------------|
D|-------------------6-------6------|-----------------4---6---4------|
A|-------------------------------6--|-------------6---------------4--|
E|----------------------------------|--------------------------------|



      A                                               A   G#m     F#
e|----0------0---0---0---0---0---0--|--0------0---0---0---4---x---2---|
B|----2------2---2---2---2---2---2--|--2------2---2---2---4---x---2---|
G|----2------2---2---2---2---2---2--|--2------2---2---2---4---x---3---|
D|----2------2---2---2---2---2---2--|--2------2---2---2---6---x---4---|
A|----0------0---0---0---0---0---0--|--0------0---0---0---6---x---4---|
E|----------------------------------|---------------------4---x---2---|
 |
e|----------------------------------|---------------------------------|
B|-----------------------5----------|---------------------------------|
G|-----------2------/6------6\4-----|-----------------6---4-----------|
D|-------------------------------7--|-----------------7---6-------4-4-|
A|----------------------------------|-----------------7---6-------4-4-|
E|----------------------------------|-----------------5---4-------2-3-|




e|----2------2---2---2---2---2---2---|--2------2---2---2---2---2---2---|
B|----2------2---2---2---2---2---2---|--2------2---2---2---2---2---2---|
G|----3------3---3---3---3---3---3---|--3------3---3---3---3---3---3---|
D|----4------4---4---4---4---4---4---|--4------4---4---4---4---4---4---|
A|----4------4---4---4---4---4---4---|--4------4---4---4---4---4---4---|
E|----2------2---2---2---2---2---2---|--2------2---2---2---2---2---2---|
 |
e|-------2-------------------2-------|---------2-----------------------|
B|-------2-------------------2-------|---------2-----------------------|
G|-------3-------------------3-------|---------3-----------------------|
D|----4----------------------4-------|--4--4---4-------4---4---4-------|
A|----4------4-4-4---4-4-4---4---4-4-|--4--4---4---4---4---4---4-------|
E|----2------2-2-2---2-2-2---2---2-2-|--2--2---2---2---2---2---2-------|



      B                                 E/B            A   G#m     F#
e|----7------7---7---7---7---7---7---|--7------7---7---5---4---x---2---|
B|----7------7---7---7---7---7---7---|--9------9---9---5---4---x---2---|
G|----8------8---8---8---8---8---8---|--9------9---9---6---4---x---3---|
D|----9------9---9---9---9---9---9---|--9------9---9---7---6---x---4---|
A|----9------9---9---9---9---9---9---|--7------7---7---7---6---x---4---|
E|----7------7---7---7---7---7---7---|--7------7---7---5---4---x---2---|
 |
e|-----------7---------------7-------|--7------------------------------|
B|-----------7---------------7-------|--9------9-----------------------|
G|-----------8---------------8-------|--9------9-------6---4-----------|
D|----9----------9---9-------9-------|--9------9-------7---6-------4-4-|
A|----9----------9---9-------9-------|--7------7-------7---6-------4-4-|
E|----7----------7---7---7---7-------|--7------7-------5---4---0---2-2-|



      F#
e|----2------2---2---2---2---2---2---|--2------2---2---2---2---2---2---|
B|----2------2---2---2---2---2---2---|--2------2---2---2---2---2---2---|
G|----3------3---3---3---3---3---3---|--3------3---3---3---3---3---3---|
D|----4------4---4---4---4---4---4---|--4------4---4---4---4---4---4---|
A|----4------4---4---4---4---4---4---|--4------4---4---4---4---4---4---|
E|----2------2---2---2---2---2---2---|--2------2---2---2---2---2---2---|
 |
e|---------------------------2-------|---------2-----------------------|
B|---------------------------2-------|---------2-----------------------|
G|----3------3---3-----------3-------|---------3-----------------------|
D|----4------4---4-------------------|---------4---------------4-------|
A|----4------4---4---4---4-------x-x-|--4--4---4---x---4---4---4-------|
E|----2------2---2---2---2-------x-x-|--2--2---2---x---2---2---2---0---|



      B             B/A             B/G#          B/F#
e|--------------------------------|-----------------------------|
B|----4--4---4--4---4--4---4--4---|-4--4---4--4---4--4---4--4---|
G|----4--4---4--4---4--4---4--4---|-4--4---4--4---4--4---4--4---|
D|----4--4---4--4---4--4---4--4---|-4--4---4--4---4--4---4--4---|
A|----2--2---2--2---2--2---2--2---|-2--2---2--2---2--2---2--2---|
E|--------------------------------|-----------------------------|
 |    |---------------------- palm mute -----------------------
e|--------------------------------|-----------------------------|
B|--------------------------------|-----------------------------|
G|--------------------------------|-----------------------------|
D|--------------------------------|-----------------------------|
A|----2--2-2-2--2-2-2--2-2-2--2-2-|-2--2-2-2--2-2-2--2-2-2--2-2-|
E|--------------------------------|-----------------------------|



      B/E           B/D#            B/C#          B
e|--------------------------------|-----------------------------|
B|----4--4---4--4---4--4---4--4---|-4--4---4--4---4--4---4--4---|
G|----4--4---4--4---4--4---4--4---|-4--4---4--4---4--4---4--4---|
D|----4--4---4--4---4--4---4--4---|-4--4---4--4---4--4---4--4---|
A|----2--2---2--2---2--2---2--2---|-2--2---2--2---2--2---2--2---|
E|--------------------------------|-----------------------------|
 |  --------------------- palm mute ---------------------|
e|--------------------------------|-----------------------------|
B|--------------------------------|-----------------------------|
G|--------------------------------|-----------------------------|
D|--------------------------------|-----------------------------|
A|----2--2-2-2--2-2-2--2-2-2--2-2-|-2--2-2-2--2-2-2--2-2-2------|
E|--------------------------------|-----------------------------|

  Verse 3

      E                                B7
e|----0------0---0---0---0---0---0--|--2------2---2---2---2---2---2--|
B|----0------0---0---0---0---0---0--|--0------0---0---0---0---0---0--|
G|----1------1---1---1---1---1---1--|--2------2---2---2---2---2---2--|
D|----2------2---2---2---2---2---2--|--1------1---1---1---1---1---1--|
A|----2------2---2---2---2---2---2--|--2------2---2---2---2---2---2--|
E|----0------0---0---0---0---0---0--|--------------------------------|
 |
e|----------------------------------|--------------------------------|
B|----------------------------------|--------------------------------|
G|----------------------------------|--------------------------------|
D|----------------------------------|--------------------------------|
A|----------------------------------|--------------------------------|
E|----------------------------------|--------------------------------|



      A                                   A
e|----0------0---0---0---0---0---0--|--0------0---0---0---0---0---0--|
B|----2------2---2---2---2---2---2--|--2------2---2---2---2---2---2--|
G|----2------2---2---2---2---2---2--|--2------2---2---2---2---2---2--|
D|----2------2---2---2---2---2---2--|--2------2---2---2---2---2---2--|
A|----0------0---0---0---0---0---0--|--0------0---0---0---0---0---0--|
E|----------------------------------|--------------------------------|
 |
e|----------------------------------|--------------------------------|
B|-----------------------5----------|--------------------------------|
G|-----------2------/6------6\4-----|---------------------4----------|
D|-------------------------------7--|-----------------6-------6------|
A|----------------------------------|--------/7-------------------7--|
E|----------------------------------|--------------------------------|



      E                                B7
e|----0------0---0---0---0---0---0--|--2------2---2---2---2---2---2--|
B|----0------0---0---0---0---0---0--|--0------0---0---0---0---0---0--|
G|----1------1---1---1---1---1---1--|--2------2---2---2---2---2---2--|
D|----2------2---2---2---2---2---2--|--1------1---1---1---1---1---1--|
A|----2------2---2---2---2---2---2--|--2------2---2---2---2---2---2--|
E|----0------0---0---0---0---0---0--|--------------------------------|
 |               |------------------- palm mute -------------------| 
e|----------------------------------|--------------------------------|
B|----------------------------------|--------------------------------|
G|-----------------------4----------|--------------------------------|
D|-------------------6-------6------|-----------------4---6---4------|
A|---------------7---------------6--|-------------6---------------4--|
E|----------------------------------|--------------------------------|



      A                                A
e|----0------0---0---0---0---0---0--|--0------0---0---0---0---0---0--|
B|----2------2---2---2---2---2---2--|--2------2---2---2---2---2---2--|
G|----2------2---2---2---2---2---2--|--2------2---2---2---2---2---2--|
D|----2------2---2---2---2---2---2--|--2------2---2---2---2---2---2--|
A|----0------0---0---0---0---0---0--|--0------0---0---0---0---0---0--|
E|----------------------------------|--------------------------------|
 |
e|----------------------------------|--------------------------------|
B|-----------------------5----------|--------------------------------|
G|-----------2------/6------6\4-----|--------------------------------|
D|-------------------------------7--|--------------------------------|
A|----------------------------------|--------------------------------|
E|----------------------------------|--------------------------------|



      F#m                              C#/E#
e|----2------2---2---2---2---2---2--|--1------1---1---1---1---1---1--|
B|----2------2---2---2---2---2---2--|--2------2---2---2---2---2---2--|
G|----2------2---2---2---2---2---2--|--1------1---1---1---1---1---1--|
D|----4------4---4---4---4---4---4--|--3------3---3---3---3---3---3--|
A|----4------4---4---4---4---4---4--|--4------4---4---4---4---4---4--|
E|----2------2---2---2---2---2---2--|--------------------------------|
 |
e|----------------------------------|--------------------------------|
B|----------------------------------|--------------------------------|
G|----------------------------------|--------------------------------|
D|----------------------------------|--------------------------------|
A|----------------------------------|--------------------------------|
E|----------------------------------|--------------------------------|



      A/C#                             B7
e|----------------------------------|--2------2---2---2---2---2---2--|
B|----2------2---2---2---2---2---2--|--0------0---0---0---0---0---0--|
G|----2------2---2---2---2---2---2--|--2------2---2---2---2---2---2--|
D|----2------2---2---2---2---2---2--|--1------1---1---1---1---1---1--|
A|----4------4---4---4---4---4---4--|--2------2---2---2---2---2---2--|
E|----------------------------------|--------------------------------|
 |
e|----------------------------------|--------------------------------|
B|----------------------------------|--------------------------------|
G|----------------------------------|--------------------------------|
D|----------------------------------|--------------------------------|
A|----------------------------------|--------------------------------|
E|----------------------------------|--------------------------------|



      E                                B7
e|----0------0---0---0---0---0---0--|--2------2---2---2---2---2---2--|
B|----0------0---0---0---0---0---0--|--0------0---0---0---0---0---0--|
G|----1------1---1---1---1---1---1--|--2------2---2---2---2---2---2--|
D|----2------2---2---2---2---2---2--|--1------1---1---1---1---1---1--|
A|----2------2---2---2---2---2---2--|--2------2---2---2---2---2---2--|
E|----0------0---0---0---0---0---0--|--------------------------------|
 |                  |------------------ palm mute -----------------| 
e|----------------------------------|--------------------------------|
B|----------------------------------|--------------------------------|
G|-----------------------4----------|--------------------------------|
D|-------------------6-------6------|-----------------4---6---4------|
A|-------------------------------6--|-------------6---------------4--|
E|----------------------------------|--------------------------------|



      A                                A
e|----0------0---0---0---0---0---0--|--0------0---0---0---0---0---0--|
B|----2------2---2---2---2---2---2--|--2------2---2---2---2---2---2--|
G|----2------2---2---2---2---2---2--|--2------2---2---2---2---2---2--|
D|----2------2---2---2---2---2---2--|--2------2---2---2---2---2---2--|
A|----0------0---0---0---0---0---0--|--0------0---0---0---0---0---0--|
E|----------------------------------|--------------------------------|
 |
e|----------------------------------|--------------------------------|
B|-----------------------5----------|---------------------5----------|
G|-----------2------/6------6\4-----|--2-------------/6------6\4-----|
D|-------------------------------7--|-----------------------------7--|
A|----------------------------------|--------------------------------|
E|----------------------------------|--------------------------------|



      E                                B7
e|----0------0---0---0---0---0---0--|--2------2---2---2---2---2---2--|
B|----0------0---0---0---0---0---0--|--0------0---0---0---0---0---0--|
G|----1------1---1---1---1---1---1--|--2------2---2---2---2---2---2--|
D|----2------2---2---2---2---2---2--|--1------1---1---1---1---1---1--|
A|----2------2---2---2---2---2---2--|--2------2---2---2---2---2---2--|
E|----0------0---0---0---0---0---0--|--------------------------------|
 |
e|----------------------------------|--------------------------------|
B|----------------------------------|--------------------------------|
G|---(6)--4------------------4------|--------------------------------|
D|---------------4--/6---4------/6--|-(6)--4-------------------6--4--|
A|----------------------------------|-----------------2--4--2--------|
E|----------------------------------|--------------------------------|



      A                                B5                          A5
e|----0------0---0---0---0---0---0--|--7-------7-------7-------7----5-|
B|----2------2---2---2---2---2---2--|--7-------7-------7-------7----5-|
G|----2------2---2---2---2---2---2--|--8-------8-------8-------8----6-|
D|----2------2---2---2---2---2---2--|--9-------9-------9-------9----7-|
A|----0------0---0---0---0---0---0--|--9-------9-------9-------9----7-|
E|----------------------------------|--7-------7-------7-------7----5-|
 |               ~~~~~~                 let ring
e|----------------------------------|---------------------------------|
B|----------------------------------|---------------------------------|
G|----------------------------------|---------------------------------|
D|---(4)----------------------------|--9----------------------------7-|
A|--------7-----4----(4)------------|--9----------------------------7-|
E|----------------------------------|--7----------------------------5-|



      B5                           A5  B5                            A5
e|---/7-------7-------7-------7----5-|-/7-------7-------7-------7----5-|
B|---/7-------7-------7-------7----5-|-/7-------7-------7-------7----5-|
G|---/8-------8-------8-------8----6-|-/8-------8-------8-------8----6-|
D|---/9-------9-------9-------9----7-|-/9-------9-------9-------9----7-|
A|---/9-------9-------9-------9----7-|-/9-------9-------9-------9----7-|
E|---/7-------7-------7-------7----5-|-/7-------7-------7-------7----5-|
 |                                          |---- palm mute ----|
e|-----------------------------------|---------------------------------|
B|-----------------------------------|---------------------------------|
G|-----------------------------------|---------------------------------|
D|---/9----------------------------7-|-/9----------------------------7-|
A|---/9--------------------9--9\---7-|-/9---9-9-9---9-9-9---9-9-9\---7-|
E|---/7----------------------------5-|-/7-------7-------7------------5-|



      B5                           A5  B5                            A5
e|---/7-------7-------7-------7----5-|-/7-------7-------7-------7----5-|
B|---/7-------7-------7-------7----5-|-/7-------7-------7-------7----5-|
G|---/8-------8-------8-------8----6-|-/8-------8-------8-------8----6-|
D|---/9-------9-------9-------9----7-|-/9-------9-------9-------9----7-|
A|---/9-------9-------9-------9----7-|-/9-------9-------9-------9----7-|
E|---/7-------7-------7-------7----5-|-/7-------7-------7-------7----5-|
 |        |---- palm mute ----|             |---- palm mute ----|
e|-----------------------------------|---------------------------------|
B|-----------------------------------|---------------------------------|
G|-----------------------------------|---------------------------------|
D|---/9----------------------------7-|-/9----------------------------7-|
A|---/9---9-9-9---9-9-9---9-9-9\---7-|-/9---9-9-9---9-9-9---9-9-9\---7-|
E|---/7-------7-------7------------5-|-/7-------7-------7------------5-|



      B5                           A5   B5                           A5
e|---/7-------7-------7-------7----5-|-/7-------7-------7-------7----5-|
B|---/7-------7-------7-------7----5-|-/7-------7-------7-------7----5-|
G|---/8-------8-------8-------8----6-|-/8-------8-------8-------8----6-|
D|---/9---9-9-9---9-9-9---9-9-9----7-|-/9-------9-------9-------9----7-|
A|---/9---9-9-9---9-9-9---9-9-9----7-|-/9-------9-------9-------9----7-|
E|---/7-------7-------7-------7----5-|-/7-------7-------7-------7----5-|
 |        |---- palm mute ----|             |---- palm mute ----|
e|-----------------------------------|---------------------------------|
B|-----------------------------------|---------------------------------|
G|-----------------------------------|---------------------------------|
D|---/9----------------------------7-|-/9----------------------------7-|
A|---/9---9-9-9---9-9-9---9-9-9\---7-|-/9---9-9-9---9-9-9---9-9-9\---7-|
E|---/7-------7-------7------------5-|-/7-------7-------7------------5-|



      B5                                E
e|---/7-------7-------7-------7------|--0------------------------------|
B|---/7-------7-------7-------7------|--0------------------------------|
G|---/8-------8-------8-------8------|--1------------------------------|
D|---/9-------9-------9-------9------|--2------------------------------|
A|---/9-------9-------9-------9------|--2------------------------------|
E|---/7-------7-------7-------7------|--0------------------------------|
 |        |--- palm mute ---|
e|-----------------------------------|--0------------------------------|
B|-----------------------------------|--0------------------------------|
G|-----------------------------------|--1------------------------------|
D|---/9-------9---------------9------|--2------------------------------|
A|---/9---9-9-9---9-9-9---9-9-9------|--2------------------------------|
E|---/7-------7-------7-------7------|--0------------------------------|




Intro

| B       B/A      | B/G#    B/F#     | B/E     B/D#     |

| B/C#    B        | E                | B7               |

| A                |


Verse 1

            E
Dirty old river
                 B
Must you keep rolling
             A
Flowing into the night
            E
People so busy
                B
Make me feel dizzy
               A
Taxi lights shine so bright
           F#m        C#/E#
But I donít 
               A/C#        B7
Need no friends
                 E
As long as I gaze on
            B7
Waterloo sunset
          A
I am in paradise


       F#
Sha la la
                                         B
Every day I look at the World from my window
       F#
Sha la la

But chilly, chilly is the evening time
B          B/A         B/G#    B/F#             
Waterloo sunsetís fine
B/E#    B/D#    B/C#


Verse 2

              E
Terry meets Julie
            B
Waterloo station
         A
Every Friday night
              E
But I am so lazy
                 B
Donít want to wander
              A
I stay at home at night
           F#m        C#/E#
But I donít 
           A/C#        B7
Feel afraid
                 E
As long as I gaze on
            B7
Waterloo sunset
          A
I am in paradise


       F#
Sha la la
                                         B
Every day I look at the World from my window
       F#
Sha la la

But chilly, chilly is the evening time
B          B/A         B/G#    B/F#             
Waterloo sunsetís fine
B/E#    B/D#    B/C#


Verse 3

               E
Millions of people
                    B
Swarming like flies Ďround
           A
Waterloo underground
                E
But Terry and Julie
                 B
Cross over the river
                    A
Where they feel safe and sound
              F#m        C#/E#
But they donít 
               A/C#        B7
Need no friends
                 E
As long as I gaze on
            B7
Waterloo sunset
          A
I am in paradise


Guitar solo

| A                | E                | 

| B7               | A                |


Outro

| B5            A5 | B5            A5 |

B5                    A5
Waterloo sunsetís fine
B5                    A5
Waterloo sunsetís fine
B5                    A5
Waterloo sunsetís fine


| B5            A5 | B5            A5 |

| B5               | E                |




/    slide up
\    slide down
h    hammer-on
p    pull-off
mu   mute
pb   pre-bend
cu   cut off
pr   partial release
bss  bend slightly sharp
~~   vibrato


======================================================================  21 April 2010
Tap to rate this tab
 
# A B C D E F G H I J K L M N O P Q R S T U V W X Y Z