Song name
# A B C D E F G H I J K L M N O P Q R S T U V W X Y Z

Kinks - Juke Box Music tab

I grew up listening to the Kinks and this has always
been one of my favorite tracks of theirs. Dave Davies 
is the unsung hero of this one with the catchy major 
scale lead and caterwauling harmony during the final 
verse. I tabbed this out by ear on my own so please 
forgive any mistakes. Enjoy!

      (Main Riff)
    A              D              G        D        A
E|--0-0-0-----0----0-0-0-----0----0-0-0----0-0-0----0-0-0-----0--------|
B|--2-2-2-----2----3-3-3-----3----5-5-5----3-3-3----2-2-2-----2--------|
G|--2-2-2-----2----0-0-0-----0----0-0-0----0-0-0----2-2-2-----2--------|
D|--2-2-2-----2----4-4-4-----4----5-5-5----4-4-4----2-2-2-----2--------|
A|--0-0-0-----0----0-0-0-----0----0-0-0----0-0-0----0-0-0-----0--------|
E|--------2-0------------2-0------------------------------2-0----------|
  

      (Verse)
A                     G                       D              A
Little lady plays her favorite records on the juke box every day
A                          G                        D                           A
All day long she plays the same old songs and she believes the things that they say
A                    G                           D                     A
Other ladies like to prance around and flirt and dance the whole night through
         A                       G                              D                    A
She just sits and listens to the juke box records cause that's all that she wants to do

      (Pre-Chorus)
D                            G                       D                      G
She sings along with all the saddest songs and she believes the stories are real
D                  G                        (Riff 1)
She lets the music dictate the way that she feels

      (Chorus)
    A              D              G        D        A
E|--0-0-0-----0----0-0-0-----0----0-0-0----0-0-0----0-0-0-----0--------|
B|--2-2-2-----2----3-3-3-----3----5-5-5----3-3-3----2-2-2-----2--------|
G|--2-2-2-----2----0-0-0-----0----0-0-0----0-0-0----2-2-2-----2--------|
D|--2-2-2-----2----4-4-4-----4----5-5-5----4-4-4----2-2-2-----2--------|
A|--0-0-0-----0----0-0-0-----0----0-0-0----0-0-0----0-0-0-----0--------|
E|--------2-0------------2-0------------------------------2-0----------|

               It's only juke box music, 
                             only juke box music.         It's only music..
           ..only juke box music
                              only juke box music.

     (Lead Guitar)

E|--------------------------------------------------------------|
B|-------8-10-8-7----7b8--7-------------------------------------|
G|-----9----------9---------9-7---9-7-5-7-5---------------------|
D|------------------------------7-----------7-------------------|
A|--------------------------------------------------------------|
E|--------------------------------------------------------------|

E|--------------------------------------------------------------|
B|-------8-10-8-7---7b8--7--------------------------------------|
G|-----9----------9--------9-7---9-7-5-7-5----------------------|
D|-----------------------------7-----------7-5------------------|
A|---------------------------------------------7-5-3------------|
E|---------------------------------------------------5-3-0------|


     (Solo)
              A           G                   D              A
E|--------------------------------------------------------12-----|
B|------------------------10---12b14-14-14-14r10~-10-12b14--10---|
G|--------------------9-11--11-----------------------------------|
D|------------7~-7-/11-------------------------------------------|
A|----7h9-7h9----------------------------------------------------|
E|---------------------------------------------------------------|

                A                     G               D         A
E|--------------------------------------------------------------------|
B|------10-12-12b14-12b14-12b14r12p10-12--10-12b14r12-10--10----10----|
G|----11--------------------------------------------------9h11--9-----|
D|--------------------------------------------------------------------|
A|--------------------------------------------------------------------|
E|--------------------------------------------------------------------|

     (Same chords as verse)

It's all because of that music that we're slowly drifting apart
But it's only there to dance to, so ya shouldn't take it to heart.
Music, only juke box music. Only music, only juke box music.

     (Use Main Riff for Outro)


      And that's it! Hope you enjoy.

     (C)2010 G.D.Gnizak

Tap to rate this tab
 
# A B C D E F G H I J K L M N O P Q R S T U V W X Y Z