Song name
# A B C D E F G H I J K L M N O P Q R S T U V W X Y Z

Kinks - All Day And All Of The Night tab

-----------------------|
-----------------------|
-----------------------|
-3-3--1-1--8-8-8--3----|
-3-3--1-1--8-8-8--3----|
-5-5--3-3--6-6-6--5----|


-----------------------|
-----------------------|
-----------------------|
-3-3--1-1--8-8-8--3----|
-3-3--1-1--8-8-8--3----|
-5-5--3-3--6-6-6--5----|



sounds better on electric acoustic is good but electric is better.
Thank you for learning.
Comment on harry92009@hotmail.co.uk
Tap to rate this tab
# A B C D E F G H I J K L M N O P Q R S T U V W X Y Z