Song name
# A B C D E F G H I J K L M N O P Q R S T U V W X Y Z

Kinks - Nothin In This World Can Stopme Worrying About The Girl tab

A vwonderful song by The Kinks


Main Riff     Gm

Gm
  Met a girl, fell in love, glad as I can be
Cm                                       Gm   -=Riff

  Met a girl, fell in love, mad as I can be
D                         Cm               Gm   -=Riff
But I think all the time    is she true to me?
             F               D                Cm          Riff=>  Gm 
Cos' there's nothing in this world to stop me worryin' 'bout that girl


I found I was wrong she was just two timin'
I found I was wrong she just kept on lying
Now she tries to tell the truth and I just can't believe
Cos' there's nothing in this world to stop me worryin' 'bout that girl


Tell me who can I turn to, just who can I believe?
I try to put her out of my mind, she'd only cause me grief
But I love that girl whatever she's done, tho' it hurts me deeply
Cos' there's nothing in this world to stop me worryin' 'bout that girl


I know she's been with other feller's, why'd she keep on lying?
Hurts me so when she says nothin', I really feel like dyin'
I ache inside each time I think, I know it's just my pride
Cos' there's nothing in this world to stop me worryin' 'bout that girl
             F                        D7           
Cos' there's nothing in this world 
           Cm                                     
to stop me worryin' 
           Gm   Riff x4                                     
'bout that girl

|---------------------------------------|---------------------------------------|
|---------------------------------------|---------------------------------------|
|---------------------------------------|---------------------------------------|
|-----------------------3---------------|-----------------------3---------------|
|--------------3-/-5--------5---3-------|--------------3-/-5--------5---3-------|
|---3------6------------------------6---|---3-3----6------------------------6---|
                                                                                 

           Cm Riff
|---------------------------------------|---------------------------------------|
|---------------------------------------|---------------------------------------|
|------------------------3--------------|----------------------3----------------|
|---------------3-/-5--------5---3------|--------------3-/-5-------5---3--------|
|----3------6------------------------6--|--3--3---6------------------------6----|
|---------------------------------------|---------------------------------------|
          



Note - the riffs are based on pentatonic patterns and are the backbone of the
song. 
Tap to rate this tab
# A B C D E F G H I J K L M N O P Q R S T U V W X Y Z