Song name
# A B C D E F G H I J K L M N O P Q R S T U V W X Y Z

Kinks - You Really Got Me Live tab

This is my attempt at the intro to this version of You Really Got Me Now, played it for 
a talent show and it sounded pretty good. It's not 100% but its fairly close

Tuning: Standard

Key:  " Tremolo picking
      5^7 bend to note
      * harmonic
      h hammer on
      p pull off

e----------------------------------------------------------------------------|
b----------------------------------------------------------------------------|
g----------------------------------5^7--3--------5*^-------------------------|
d----------------------10"-----------------5---------------------------------|
a----------------------10"---------------------------------------------------|
E---1"----2"----2/6"---8"----------------------------------------------------|

e----------------------------------------------------------------------------|
b----------------------------------------------------------------------------|
g-----------------------------------------------------------------5^7--------|
d-------------------------------------------------------3----3h5-------------|
a------------------------------------------------3h5p3----5------------------|
E--1-2-3--1-2-3--1-2-3--1-2-3--1-2-3--1-2-3----------------------------------|

e----3--6--3-----------------------------------------------------------------|
b----3--6--3--5--3--5---7^9-----3--------------------------------------------|
g-------------5--3--5-----------3------6-5-3-3h5p3-0-----7--7"-9"-10"-12"----|
d----------------------------------5-----------------------------------------|
a----------------------------------5-----------------------------------------|
E----------------------------------------------------------------------------|

e----------------------------------------------------------------------------|
b----------------------------------------------------------------------------|
g----------------------------------------------------------------------------|
d----10\\\\---------------10-----3/5---3/5-------3/5---3/5-------------------|
a----10\\\\-pickslide-----10-----3/5---3/5-------3/5---3/5-------------------|
E-----8\\\\----------------8-----1/3---1/3-------1/3---1/3-------------------|

e----------------------------------------------------------------------------|
b----------------------------------------------------------------------------|
g----------------------------------------------------------------------------|
d---3/5-5---3/5--------------------------------------------------------------|
a---3/5-5---3/5---repeat-----------------------------------------------------|
E---1/3-3---1/3--------------------------------------------------------------|
Tap to rate this tab
# A B C D E F G H I J K L M N O P Q R S T U V W X Y Z