Song name
# A B C D E F G H I J K L M N O P Q R S T U V W X Y Z

Kinks - Picture Book tab

The Kinks - Picture Book


E|-----------------------------------------------------------------------------------------------------|
B|-----------------------------------------------------------------------------------------------------|
G|-------------------------0-0--------------------------------0-0--------------------------------------|
D|-----------------0-0-2-4-----4-3-2-|----------------0-0-2-4-----4-3-2-|------------------------------|
A|---------0-0-2-4----------------------------0-0-2-4--------------------------------------------------|
E|-0-0-2-4------------------------------0-2-4----------------------------------------------------------|


   E | A | D | G |                                  E | A | D | G |  
E|---------2---3--------------------------------------------2---3--------------------------------------|
B|-----2---3--------------------------------------------2---3------------------------------------------|
G|-1---2---2--------------------------------0-0-----1---2---2--------------------------------0-0-------|
D|-2---2----------------------------0-0-2-4-----4-3-2---2----------------------------0-0-2-4-----4-3---|
A|-2-----------2------------0-0-2-4-----------------2-----------2------------0-0-2-4-------------------|
E|-------------3----0-0-2-4-------------------------------------3----0-0-2-4---------------------------|

   Picture yourself when you're getting old         Sit by the fireside a-pondering on


   F  |  C  |  F  |  C  |  F  |  C  |  F  |  C  |
E|-1-----0-----1-----0-----1-----0-----1-----0---------------------------------------------------------|
B|-1-----1-----1-----1-----1-----1-----1-----1---------------------------------------------------------|
G|-2-----0-----2-----0-----2-----0-----2-----0---------------------------------------------------------|
D|-3-----2-----3-----2-----3-----2-----3-----2---------------------------------------------------------|
A|-3-----3-----3-----3-----3-----3-----3-----3---------------------------------------------------------|
E|-1-----------1-----------1-----------1---------------------------------------------------------------|

   Picture book, pictures of your mama, taken by your papa a long time ago


   F  |  C  |  F  |  C  |  F  |  C  |  F  |  C  |
E|-1-----0-----1-----0-----1-----0-----1-----0---------------------------------------------------------|
B|-1-----1-----1-----1-----1-----1-----1-----1---------------------------------------------------------|
G|-2-----0-----2-----0-----2-----0-----2-----0---------------------------------------------------------|
D|-3-----2-----3-----2-----3-----2-----3-----2---------------------------------------------------------|
A|-3-----3-----3-----3-----3-----3-----3-----3---------------------------------------------------------|
E|-1-----------1-----------1-----------1---------------------------------------------------------------|

   Picture book, of people with each other, to prove they love each other a long time ago


   Bb  |  |  |  C  |  |  |  Bb  |  |  |  C  |  |  |
E|-----------------------------------------------------------------------------------------------------|
B|-----------------------------------------------------------------------------------------------------|
G|-----------------------------------------------------------------------------------------------------|
D|-----------------------------------------------------------------------------------------------------|
A|-----------------------------------------------------------------------------------------------------|
E|-----------------------------------------------------------------------------------------------------|

   Na na na na na na        Na na na na na na picture book


E|-----------------------------------------------------------------------------------------------------|
B|-----------------------------------------------------------------------------------------------------|
G|-----------------0-0-2-4-5-5-4-3--------------------0-0-2-4-5----------------------------------------|
D|---------0-0-2-4----------------------------0-0-2-4--------------------------------------------------|
A|-0-0-2-4----------------------------0-0-2-4----------------------------------------------------------|
E|-----------------------------------------------------------------------------------------------------|

                             Picture book


   E | A | D | G |                                  E | A | D | G |  
E|---------2---3--------------------------------------------2---3--------------------------------------|
B|-----2---3--------------------------------------------2---3------------------------------------------|
G|-1---2---2--------------------------------0-0-----1---2---2--------------------------------0-0-------|
D|-2---2----------------------------0-0-2-4-----4-3-2---2----------------------------0-0-2-4-----4-3---|
A|-2-----------2------------0-0-2-4-----------------2-----------2------------0-0-2-4-------------------|
E|-------------3----0-0-2-4-------------------------------------3----0-0-2-4---------------------------|

   A picture of you in your birthday suit           You sat in the sun on a hot afternoon


   F  |  C  |  F  |  C  |  F  |  C  |  F  |  C  |
E|-1-----0-----1-----0-----1-----0-----1-----0---------------------------------------------------------|
B|-1-----1-----1-----1-----1-----1-----1-----1---------------------------------------------------------|
G|-2-----0-----2-----0-----2-----0-----2-----0---------------------------------------------------------|
D|-3-----2-----3-----2-----3-----2-----3-----2---------------------------------------------------------|
A|-3-----3-----3-----3-----3-----3-----3-----3---------------------------------------------------------|
E|-1-----------1-----------1-----------1---------------------------------------------------------------|

   Picture book, your mama and your papa, and fat old uncle charlie out cruising with their friends


   F  |  C  |  F  |  C  |  F  |  C  |  F  |  C  |
E|-1-----0-----1-----0-----1-----0-----1-----0---------------------------------------------------------|
B|-1-----1-----1-----1-----1-----1-----1-----1---------------------------------------------------------|
G|-2-----0-----2-----0-----2-----0-----2-----0---------------------------------------------------------|
D|-3-----2-----3-----2-----3-----2-----3-----2---------------------------------------------------------|
A|-3-----3-----3-----3-----3-----3-----3-----3---------------------------------------------------------|
E|-1-----------1-----------1-----------1---------------------------------------------------------------|

   Picture book, a holiday in August, outside a bed and breakfast in sunny Southend


   F  |  C  |  F  |  C  |  F  |  C  |  F  |  C  |
E|-1-----0-----1-----0-----1-----0-----1-----0---------------------------------------------------------|
B|-1-----1-----1-----1-----1-----1-----1-----1---------------------------------------------------------|
G|-2-----0-----2-----0-----2-----0-----2-----0---------------------------------------------------------|
D|-3-----2-----3-----2-----3-----2-----3-----2---------------------------------------------------------|
A|-3-----3-----3-----3-----3-----3-----3-----3---------------------------------------------------------|
E|-1-----------1-----------1-----------1---------------------------------------------------------------|

   Picture book, when you were just a baby, those days when you were happy, a long time ago


   Bb  |  |  |  C  |  |  |  Bb  |  |  |  C  |  |  |
E|-----------------------------------------------------------------------------------------------------|
B|-----------------------------------------------------------------------------------------------------|
G|-----------------------------------------------------------------------------------------------------|
D|-----------------------------------------------------------------------------------------------------|
A|-----------------------------------------------------------------------------------------------------|
E|-----------------------------------------------------------------------------------------------------|

   Na na na na na na        Na na na na na na picture book


E|-----------------------------------------------------------------------------------------------------|
B|-----------------------------------------------------------------------------------------------------|
G|-----------------0-0-2-4-5-5-4-3--------------------0-0-2-4-5-5-4-3----------------------------------|
D|---------0-0-2-4----------------------------0-0-2-4--------------------------------------------------|
A|-0-0-2-4----------------------------0-0-2-4----------------------------------------------------------|
E|-----------------------------------------------------------------------------------------------------|

                             Picture book                       Picture book


E|-----------------------------------------------------------------------------------------------------|
B|-----------------------------------------------------------------------------------------------------|
G|-----------------0-0-2-4-5-5-4-3--------------------0-0-2-4-5-|--------------------------------------|
D|---------0-0-2-4----------------------------0-0-2-4--------------------------------------------------|
A|-0-0-2-4----------------------------0-0-2-4----------------------------------------------------------|
E|-----------------------------------------------------------------------------------------------------|

                             Picture book


   F  |  C  |  F  |  C  |  F  |  C  |  F  |  C  |
E|-1-----0-----1-----0-----1-----0-----1-----0---------------------------------------------------------|
B|-1-----1-----1-----1-----1-----1-----1-----1---------------------------------------------------------|
G|-2-----0-----2-----0-----2-----0-----2-----0---------------------------------------------------------|
D|-3-----2-----3-----2-----3-----2-----3-----2---------------------------------------------------------|
A|-3-----3-----3-----3-----3-----3-----3-----3---------------------------------------------------------|
E|-1-----------1-----------1-----------1---------------------------------------------------------------|

   Picture book na na na na na na a-scooby-dooby-doo


   F  |  C  |  F  |  C  |  F  |  C  |  F  |  C  |
E|-1-----0-----1-----0-----1-----0-----1-----0---------------------------------------------------------|
B|-1-----1-----1-----1-----1-----1-----1-----1---------------------------------------------------------|
G|-2-----0-----2-----0-----2-----0-----2-----0---------------------------------------------------------|
D|-3-----2-----3-----2-----3-----2-----3-----2---------------------------------------------------------|
A|-3-----3-----3-----3-----3-----3-----3-----3---------------------------------------------------------|
E|-1-----------1-----------1-----------1---------------------------------------------------------------|

   Picture book na na na na na na a-scooby-dooby-doo


   F  |  C  |  F  |  C  |  F  |  C  |  F  |  C  |
E|-1-----0-----1-----0-----1-----0-----1-----0---------------------------------------------------------|
B|-1-----1-----1-----1-----1-----1-----1-----1---------------------------------------------------------|
G|-2-----0-----2-----0-----2-----0-----2-----0---------------------------------------------------------|
D|-3-----2-----3-----2-----3-----2-----3-----2---------------------------------------------------------|
A|-3-----3-----3-----3-----3-----3-----3-----3---------------------------------------------------------|
E|-1-----------1-----------1-----------1---------------------------------------------------------------|

   Picture book, pictures of your mama, taken by your papa a long time ago


   F  |  C  |  F  |  C  |  F  |  C  |  F  |  C  |
E|-1-----0-----1-----0-----1-----0-----1-----0---------------------------------------------------------|
B|-1-----1-----1-----1-----1-----1-----1-----1---------------------------------------------------------|
G|-2-----0-----2-----0-----2-----0-----2-----0---------------------------------------------------------|
D|-3-----2-----3-----2-----3-----2-----3-----2---------------------------------------------------------|
A|-3-----3-----3-----3-----3-----3-----3-----3---------------------------------------------------------|
E|-1-----------1-----------1-----------1---------------------------------------------------------------|

   Long time ago...long time ago...long time ago...yeah yeah yeah


E|-----------------------------------------------------------------------------------------------------|
B|-----------------------------------------------------------------------------------------------------|
G|-----------------0-0-2-4-5---------------------------------------------------------------------------|
D|---------0-0-2-4-------------------------------------------------------------------------------------|
A|-0-0-2-4---------------------------------------------------------------------------------------------|
E|-----------------------------------------------------------------------------------------------------|
Tap to rate this tab
 
# A B C D E F G H I J K L M N O P Q R S T U V W X Y Z