Song name
# A B C D E F G H I J K L M N O P Q R S T U V W X Y Z

Kino Klub - Za Nju tab

Tabs are not 100% correct but they´re good

 \\ - full slide down
 


1.intro and verse
 palm muted
e|------------------------------------------------|
B|-------10-----------10--------------------------|
G|----11------11---11-----11----------------------| repeat this few times
D|--9-------9----9-------9------------------------|
A|------------------------------------------------|
E|------------------------------------------------|


             (   5 and 7 are palm muted   )
e|------------------------------------------------------------------|
B|------------------------------------------------------------------|
G|--5-55\\----55555555555555577777777777777-------------------------|
D|--5-55\\----------------------------------------------------------|
A|--7-77\\----------------------------------------------------------|
E|------------------------------------------------------------------|

2. chorus

e|---------------------------------------------------|
B|---------------------------------------------------|
G|--7-7-7-7-7-7-7-7-7-7-7-7--------------------------|
D|--7-7-7-7-7-7-7-7-7-7-7-7-5-5-5-5-5-5-5-5-5-5-5-5--|
A|--5-5-5-5-5-5-5-5-5-5-5-5-5-5-5-5-5-5-5-5-5-5-5-5--|
E|--------------------------3-3-3-3-3-3-3-3-3-3-3-3--|



e|---------------------------------------------------|
B|---------------------------------------------------|
G|--5-5-5-5-5-5-5-5-5-5-5-5-7-7-7-7-7-8-8-8-8-8------|
D|--5-5-5-5-5-5-5-5-5-5-5-5-7-7-7-7-7-8-8-8-8-8------|
A|--3-3-3-3-3-3-3-3-3-3-3-3-5-5-5-5-5-6-6-6-6-6------|
E|---------------------------------------------------|


3.kind of solo

e|--------------------------------------------|
B|--------------------------------------------|
G|--5-5-5-5-5-5-5-5-5-5-7-7-7-7-7-7-7-7-7-7---|
D|--5-5-5-5-5-5-5-5-5-5-7-7-7-7-7-7-7-7-7-7---|
A|--3-3-3-3-3-3-3-3-3-3-5-5-5-5-5-5-5-5-5-5---|
E|--------------------------------------------|



e|---------------------------------------------------|
B|---------------------------------------------------|
G|--8-8-8-8-10-10-10-10-10-10-10---------------------|
D|--8-8-8-8-10-10-10-10-10-10-10---------------------|
A|--6-6-6-6-8--8--8--8--8--8--8----------------------|
E|---------------------------------------------------|


4.
 palm muted
e|------------------------------------------------------------------|
B|------------------------------------------------------------------|
G|------------------------------------------------------------------|
D|------------------------------------------------------------------|
A|--77777777777777779999999999999999--------------------------------|
E|------------------------------------------------------------------|



Work with the parts I gave you and you will get the full song. The tabs are working for me,
I hope they will work for you two.(Ljudi nadam se da sam bar malo pomogao)
Tap to rate this tab
 
# A B C D E F G H I J K L M N O P Q R S T U V W X Y Z