Kino Klub - Prvi Semestar chords

Highlighted       Show chord diagrams
KinoKlub - Prvi Semestar

     G             Am         F

e|---------------------------------------------------------------------------|
B|---------------------------------------------------------------------------|
G|---------------------------------------------------------------------------|
D|---5-5-x-5------7-x-7------3-3-x-3-----------------------------------------|
A|---5-5-x-5------7-x-7------3-3-x-3-----------------------------------------|
E|---3-3-x-3------5-x-5------1-1-x-1-----------------------------------------|



e|------------------------------------|---------------------------------------|
B|------------------------------------|---------------------------------------|
G|---4------------5----------2--------|----------------------------0----------|
D|-------------------------------3----|-----0-------2-------------------------|
A|------------------------------------|-----------------------3---------------|
E|------------------------------------|---------------------------------------|


e|------------------------------------|---------------------------------------|
B|------------------------------------|---------------------------------------|
G|---0--------------------------------|-----4-------5---------2---------------|
D|----------------0----------2--------|---------------------------------------|
A|-------------------------------3----|---------------------------------------|
E|------------------------------------|---------------------------------------|


F       G            Am
kako da predem preko ovog,

kako da to prebolim?
F       G                Am
kako da te gledam istim ocima

kad provodis se nocima 
F          G                       Am
bez mene, zato ove zime ti bit ces slobodna
F         G            Am
bez mene, slobodna.

G              Am        F
prvi semestar, prva godina bez najboljeg prijatelja.

G              Am        F
prvi semestar, prva godina bez najboljeg prijatelja.
G       Am           F
kako da predem preko ovog, kako da to prebolim?
G       Am           F
kako da predem preko ovog, kako da to prebolim?

     G     Am            F                 G     Am            F
e|---------------------------------------------------------------------------|
B|---------------------------------------------------------------------------|
G|---5--4--5--4--5-4-5---7--5--------------5--4--5--4--5-4-5---7--5----------|
D|---------------------------------------------------------------------------|
A|---------------------------------------------------------------------------|
E|---------------------------------------------------------------------------|

podijelili smo prijatelje,
muski na mojoj, cure na tvojoj strani.
kako nam se to dogodilo?
raspali smo se bez ijednog sava naizgled.
raspali smo se bez ijednog sava naizgled.

prvi semestar, prva godina bez najboljeg prijatelja.
prvi semestar, prva godina bez najboljeg prijatelja.
kako da predem preko ovog, kako da to prebolim?
kako da predem preko ovog, kako da to prebolim?


Play with arpeggio kind of:
G              Am          F
prvi semestar, kraj godine.
zvoni mobitel, ti zoves me.
prvi put cijele godine
vijesti su dobre, najbolje.

kako da predem preko ovog, kako da to prebolim?
kako da predem preko ovog, kako da to prebolim?
Tap to rate this tab
 
# A B C D E F G H I J K L M N O P Q R S T U V W X Y Z