Song name
# A B C D E F G H I J K L M N O P Q R S T U V W X Y Z

Kino - Spokoinaya Noch tab

E||--------------------------------|--------------------------------|
B||--------------------------------|--------------------------------|
G||-----------------------0--0--0--|--------------------------------|
D||--------------------------------|--------------------0--0--0--0--|
A||--0--0--0--3--3--3--3-----------|--3--3--3--2--2--2--------------|
E||--------------------------------|--------------------------------|


2.                              
----------------------------||
----------------------------||
----------------------------||
--0--0--0-------------------||
-----------3--3--2--3--3----||
----------------------------||



e|-----------------------------------------------------------|
h|-----------------------------------------------------------|
g|-----------------------------------------------------------|
d|------------------5--5----------------0-0-0-0--------------|
a|-0-0-0-3-3-3-3--3---3-3-3-3-2-2-2----------5-5-3-2-3-------|
e|-----------------------------------------------------------|
Tap to rate this tab
# A B C D E F G H I J K L M N O P Q R S T U V W X Y Z