Song name
# A B C D E F G H I J K L M N O P Q R S T U V W X Y Z

Kino - V Nashix Glazah tab

E|--0--0-----------------------2--2-----------------------------|
B|--0--0-----------1--0--------1--1---------7--5----------------|
G|--2--0-----------3--2--------2--2---------5--3----------------|
D|-----------------2--1--------1--1---------7--5-----0----------|
A|-----------------3--2---------------------5--3--------3---3-2-|
E|--------------------------------------------------------------|

Intro (bass):
D|-----------------------------------------0--------0----------------|
A|-------------0--3--2--------0--0---2--3-----3--------3---3-2-------|
E|--0--0----3----------------------------------------------------3-2-|
Tap to rate this tab
# A B C D E F G H I J K L M N O P Q R S T U V W X Y Z