Song name
# A B C D E F G H I J K L M N O P Q R S T U V W X Y Z

Kino - Myzuka Voln tab

Intro:
E||----------------------------|-------------------------|
B||----------------------------|-------------------------|
G||--------------0-------------|-----------2-------------|
D||-----------0----------0-----|--------2----------2-----|
A||--3--3-(0)---------3-----3--|--0--0----------0-----0--|
E||----------------------------|-------------------------|

-------------------------|--------------------|
-------------------------|--------------------|
-------------------------|-------------------*|
-----------3-------3-----|--0----------------*|
--------3-------3-----3--|--2-----------------|
--1--1-------------------|--3-----------------|

Verse
    C     C  C  C       Am    Am Am Am       F      F  F  F
E|--0--x--0--0--0--x--|-0--x--0--0--0--x--|--1---x--1--1--1--x-|
B|--1--x--1--1--1--x--|-1--x--1--1--1--x--|--1---x--1--1--1--x-|
G|*-0--x--0--0--0--x--|-2--x--2--2--2--x--|--2---x--2--2--2--x-|
D|*-2--x--2--2--2--x--|-2--x--2--2--2--x--|--3---x--3--3--3--x-|
A|--3--x--3--3--3--x--|-0--x--0--0--0--x--|--3---x--3--3--3--x-|
E|--------------------|-------------------|--1---x--1--1--1--x-|

  F  F  F  F   F          C     C  C  C       Am    Am Am Am
--1--1--1--1---1--1---||--0--x--0--0--0--x-|--0--x--0--0--0--x-|
--1--1--1--1---1--1---||--1--x--1--1--1--x-|--1--x--1--1--1--x-|
--2--2--2--2---2--2--*||--0--x--0--0--0--x-|--2--x--2--2--2--x-|
--3--3--3--3---3--3--*||--2--x--2--2--2--x-|--2--x--2--2--2--x-|
--3--3--3--3---3--3---||--3--x--3--3--3--x-|--0--x--0--0--0--x-|
--1--1--1--1---1--1---||-------------------|-------------------|

  F     F  F  F        G     G  G  G          C     C  C  C
--1--x--1--1--1--x--|--3--x--3--3--3--x--||---0--x--0--0--0--x-|
--1--x--1--1--1--x--|--0--x--0--0--0--x--||---1--x--1--1--1--x-|
--2--x--2--2--2--x--|--0--x--0--0--0--x--||*--0--x--0--0--0--x-|
--3--x--3--3--3--x--|--0--x--0--0--0--x--||*--2--x--2--2--2--x-|
--3--x--3--3--3--x--|--2--x--2--2--2--x--||---3--x--3--3--3--x-|
--1--x--1--1--1--x--|--3--x--3--3--3--x--||--------------------|

  F     F  F  F       Am   Am Am Am       F  F  F  F    F
--3--x--3--3--3--x-|--0-x--0--0--0--x--|--1--1--1--1----1--1--||
--0--x--0--0--0--x-|--1-x--1--1--1--x--|--1--1--1--1----1--1--||
--0--x--0--0--0--x-|--2-x--2--2--2--x--|--2--2--2--2----2--2-*||
--0--x--0--0--0--x-|--2-x--2--2--2--x--|--3--3--3--3----3--3-*||
--2--x--2--2--2--x-|--0-x--0--0--0--x--|--3--3--3--3----3--3--||
--3--x--3--3--3--x-|-------------------|--1--1--1--1----1--1--||

Bass
G||-------------------|-------------------|--------------------|
D||-------------------|-------------------|--------------------|
A||--3----------------|--0----------------|--------------------|
E||-------------------|-------------------|--1-----------------|

--------------------||----------------------|------------------|
-------------------*||*---------------------|------------------|
-------------------*||*--3------3--3--------|--0------0--0-----|
--3-----------------||----------------------|------------------|

---------------------|-----------------------||----------------|
---------------------|----------------------*||----------------|
---------------------|----------------------*||--3------3--3---|
--1------1--1--------|--1------1--1/-3-------||----------------|

---------------------|---------------------|-------------------|
---------------------|---------------------|-------------------|
--0------0--0--------|---------------------|-------------------|
---------------------|--1------1--1--------|--3------3--3------|

|----------------------|---------------------|-----------------|
|*---------------------|---------------------|-----------------|
|*--3------3--3--------|---------------------|--0------0--0----|
|----------------------|--3------3--3--------|-----------------|

----------------------||
---------------------*||
---------------------*||
--1------1--1---------||
Tap to rate this tab
 
# A B C D E F G H I J K L M N O P Q R S T U V W X Y Z