Song name
# A B C D E F G H I J K L M N O P Q R S T U V W X Y Z

Kino - Peremen tab

Intro (Play with Solo1)
      Em                             Am
1---|-----------------------------------------------------------------------|
2---|-----------------------------------------------------------------------|
3---|*----------------------------------------------------------------------|
4---|*-------------------------------2------2------2------2------1------1---|
5---|-2-2---------2-2--2---------2---0--0-0-0--0-0-0--0-0-0--0-0-0--0-0-0---|
6-/x|-0-0-2^3-2^3-0-0--0-2^3-2^3-0------------------------------------------|
                 Em                             Am                     F# G
1----------------------------------------------------------------------2--3--|
2----------------------------------------------------------------------2--3--|
3----------------------------------------------------------------------3--4--|
4-----1------1----------------------------------2-2---------2-2--2-----4--5--|
5-0-0-0--0-0-0---2-2---------2-2--2---------2---0-0-2^3-2^3-0-0--0-2-3-4--5--|
6----------------0-0-2^3-2^3-0-0--0-2^3-2^3-0--------------------------2--3--|
  Em                                        F# G
1-------------------------------------------2--3-|
2-------------------------------------------2--3-|
3-------------------------------------------3--4-|
4-------------------------------------------4--5-|
5-2------2------2------2------2------2------4--5-|
6-0--0-0-0--0-0-0--0-0-0--0-0-0--0-0-0--0-0-2--3-|

Solo1
  Em                                Am
1-----0-------0-------0-------0---------5-------5---------5-------5-|
2-0-0---0-0-0---0-0-0---0-0-0---0-0-5-5---5-5-5---5-5-4-4---4-4-4---|
3-------------------------------------------------------------------|
4-------------------------------------------------------------------|
5-------------------------------------------------------------------|
6-------------------------------------------------------------------|


Solo2 (verse)
  Em                                                G
1---------------------------------------------------------------------------|
2---------------------------------------------------------------------------|
3---------------------------------------------------------------------------|
4-2-2-2-2-2--0--2--0--2---2-2-2-2-2--0--2--0--2--4--5-5-5-5-5---4--5--4--5--|
5---------------------------------------------------------------------------|
6---------------------------------------------------------------------------|

                            D
1---------------------------------------------------------------------------|
2---------------------------------------------------------------------------|
3---------------------------------------------------------------------------|
4-5-5-5-5-5--4--5--4--5--4--------------------------------------------------|
5---------------------------5-5-5-5-5--4--5--4--5--5-5-5-5-5--4--5--4--5--4-|
6---------------------------------------------------------------------------|

  Em
1----------------------------------------------------|
2----------------------------------------------------|
3----------------------------------------------------|
4-2-2-2-2-2--0--2--0--2--4--5-5-5-5-5--4--5--4--5--4-|
5----------------------------------------------------|
6----------------------------------------------------|

Solo3(Final)                                                            ( 3 times )
  Am        C        D       Em
1-------0--------0-------2---------------------------------------------------|
2-------1--------1-------3---------------------------------------------------|
3*----2--------0-------2-----------------------------------------------------|
4*--2----------------0-------2-2-2-2-2--0--2--0--2--4--5-5-5-5-5--4--5--4--5-|
5-0---------3----------------------------------------------------------------|
6----------------------------------------------------------------------------|

  Am                D            Em
1-------0---0-0-0-0-2--5--------------|
2-------1---1-1-1-1-3--7--------------|
3-----2-----2-2-2-2-2-----------------|
4---2-------2-2-2-2-0-----------------|
5-0---------0-0-0-0-------------------|
6-----------------------------/X------|
Tap to rate this tab
 
# A B C D E F G H I J K L M N O P Q R S T U V W X Y Z