Song name
# A B C D E F G H I J K L M N O P Q R S T U V W X Y Z

Kino - Spokojnaya Notch tab

Band: Kino/Viktor Tsoi(Кино)
Song: Spokojnaya Notch`(Спокойная ночь)
Album: Gruppa Krovi(Группа крови)

Standart Tuning

e|---------------------------------------------------------------------|
B|---------------------------------------------------------------------|
G|-------------------------------------------0-------------------------|
D|---------555-------------000--------------5-555-------------000------|
A|----33333---33333---55555---33343---333333-----33333---55555---33343-|
E|-555-------------777-------------555----------------777--------------|


e|-------------------------------------|
B|-------------------------------------|
G|-----------0-------------------------|2x
D|----------5-555-------------000------|
A|----333333-----33333---55555---33343-|
E|-555----------------777--------------|
Tap to rate this tab
# A B C D E F G H I J K L M N O P Q R S T U V W X Y Z