Song name
# A B C D E F G H I J K L M N O P Q R S T U V W X Y Z

Kinski - Hot Stenographer tab

Band:  KINSKI
Album: Alpine Static (2005)
Song:  Hot Stenographer

Saw these guys open for Tool in 2007, was awesome, saw that no one tabbed any of their 
songs figured I'd try to.

Play it, Comment and rate please.
Cheers, more to come.

INTRO(some kind of volume effect is used, not sure)

E|----------------------------------------|
B|----------------------------------------|
G|--5--3--1--0--0--3--1--0--0--0--0h-1----|
D|--------------------------------------3-|
A|----------------------------------------|
D|----------------------------------------|


E|----------------------------------------|
B|----------------------------------------|
G|--3--1--0--0--0-0h-1--------------------|   x4
D|---------------------1--1--1--1h-3------|
A|------------------------------------3---|
D|----------------------------------------|
                                                          (Let Ring)

E|--------------------------------------------------------------|
B|--------------------------------------------------------------|
G|--------------------------------------------------------5-----|
D|--1--1--1--1--1h-3-----1--1--1--1h-3-----1--1--1--1h-3--------|
A|--------------------3-----------------3-----------------3-----|
D|--------------------------------------------------------------|




E|--------------------------------------------------------------------|
B|--------------------------------------------------------------------|
G|--------------------------------------------------------------------|   x6
D|--------1-----------1-----------1--------1-----------1-----------3--|
A|--1--3-----3--1--3-----3--1--3-----1--3-----3--1--3-----3--1--3-----|
D|--------------------------------------------------------------------|


E|-----------------------------------------------------------------------|
B|-----------------------------------------------------------------------|
G|-----------------------------------------------------------------------|
D|-----------3--1--------------3--1--------------3--1--------------3--1--|
A|--3--1-----------3--3--1-----------3--3--1-----------3--3--1-----------|
D|--------3-----------------3-----------------3-----------------3--------|


E|----------------------------------------------------------|
B|----------------------------------------------------------|   x4
G|----------------------------------------------------------|
D|----------------------------------------------------------|
A|--3--3--3--3--3--3--3--3--1--3--3--3--3--3--3--3--3--1----|
D|----------------------------------------------------------|


E|-----------------------------------------------------------------------|
B|-----------------------------------------------------------------------|
G|-----------------------------------------------------------------------|
D|-----------3--1--------------3--1--------------3--1--------------3--1--|
A|--3--1-----------3--3--1-----------3--3--1-----------3--3--1-----------|
D|--------3-----------------3-----------------3-----------------3--------|



E|----------------------------------------------------------|
B|----------------------------------------------------------|   x2
G|----------------------------------------------------------|
D|----------------------------------------------------------|
A|--3--3--3--3--3--3--3--3--1--3--3--3--3--3--3--3--3--1----|
D|----------------------------------------------------------|



E|--------------------------------------|
B|--------------------------------------|   x4
G|-----------------------------3--4--5--|
D|--------------------3--4--5-----------|
A|-----------1--2--3--------------------|
D|--3--4--5-----------------------------|




E|----------------------------------------------------------|
B|----------------------------------------------------------|   x4
G|----------------------------------------------------------|
D|----------------------------------------------------------|
A|--3--3--3--3--3--3--3--3--1--3--3--3--3--3--3--3--3--1----|
D|----------------------------------------------------------|

E|-----
B|-----
G|-----
D|-----
A|--2--(Let Ring a long time with delay and maybe a phaser effect)
D|-----


E|-------------------------------------------------------|
B|-------------------------------------------------------|  x4
G|-------------------------------------------------------|
D|-------------------------------------------------------|
A|-1--3--3--3--3--3--3--3--3--1--3--3--3--3--3--3--3--3--|
D|-------------------------------------------------------|

Then keep hitting the C note on the third fret, on the A string for a LONG 
time...til the song ends.

D|-------------------------------------------------------------------------|
A|-----3-3-3-3-3-3-3-3-3-3-3-3-3-3-3-3-3-3-3-3-3-3-3-3-3-3-3-3-3-3-3-3-3-3-|
D|-------------------------------------------------------------------------|
Tap to rate this tab
# A B C D E F G H I J K L M N O P Q R S T U V W X Y Z