Song name
# A B C D E F G H I J K L M N O P Q R S T U V W X Y Z

Kip Moore - Up All Night Acoustic tab

-------------------------------------------------------------------------------
                             Up All Night (Acoustic) - Kip Moore
-------------------------------------------------------------------------------
Tabbed by: C. Hall

I saw some videos of Kip playing this song acoustic, and I really liked it.  This isn't 
exactly how he plays it, but it sounds very close.  I think he might use a different tuning. 
The whole song alternates between D and G chords. 

Tuning: Half-Step Down

Intro/Verse/Chorus

e|-2--0--2--0--0--0--0--0----------------------------------------------------|
B|-3--2--3--2--3--3--3--3----------------------------------------------------|
G|-2--2--2--2--4--2--4--2----------------------------------------------------|
D|-0--0--0--0----------------------------------------------------------------|
A|---------------------------------------------------------------------------|
E|-------------3--3--3--3----------------------------------------------------|


************************************

| /   slide up
| \   slide down
| h   hammer-on
| p   pull-off
| ~   vibrato
| +   harmonic
| x   Mute note
| b   Bend
| pb  Pre-bend
| br  Bend release
| pbr Pre-bend release
| brb Bend release bend

************************************
Tap to rate this tab
# A B C D E F G H I J K L M N O P Q R S T U V W X Y Z