Guitaretab - guitar tabs
Song name
# A B C D E F G H I J K L M N O P Q R S T U V W X Y Z

Kipelov - Svet Dnevnoj Issyak tab

F#m      Hm     
  Свет дневной иссяк
  F#m        Hm
  И вокруг меня пустыня.
    F#m       D            Db
  Звон звезд гонит прочь мрак,
   F#m         Hm6
  Да святится Твое Имя!
  Я здесь - я нигде,
  Но слезами боль не хлынет.
  Будь свят скорбный удел,
  Да святится Твое Имя!
  D7b        F#m      Db          F#m   
  Ни ветра, ни сна. Кто вспомнит меня!

   F#     
  Как бы я хотел плыть в лодке
   E 
  Морем на закат,
   F#
  Вольным быть как зверь свободный
  E
  И растить свой сад,
   Hm      Db    F#m E              A
  Жить бы лет до ста и любить как все
   Hm         Db
  Любят на земле!

  Сын небесных сфер
  Здесь лишь демоны и змеи,
  Но ты молод и смел 
  Вместе миром овладеем.
  Ты мне поклонись
  И получишь все богатства.
  Власть Тьмы - вот это жизнь,
  В безпробудном танце адском.
  Все жены - твои, под звон золотых!
[ Tab from: http://www.guitaretab.com/k/kipelov/115408.html ]
  Ты же сам хотел плыть в лодке
  Морем на закат,
  Вольным быть как зверь свободный
  И растить свой сад,
  Жил бы лет до ста и любил как все,
  Но не на кресте!

Вокальная партия:

E-----------------------!--------------------------!
H-----------------------!----7---9--7---9--7-----7-!
G-----6-----------------!-6--------------------7---!
D-4--------7--6---7---9-!--------------------------!
A-----------------------!--------------------------!
E-----------------------!--------------------------!
    свет дне-вной ис-сяк  и во-круг ме-ня пус-ты-ня

E------------------------------!------------------------!
H---------7------------7-------!------------------------!
G----6--------7---9---------6--!--6--------------------7!
D------------------------------!------7-6---4---6--7-9--!
A------------------------------!------------------------!
E------------------------------!------------------------!
   звон звезд го-нит прочь мрак  да свя-ти-тся тво-е и-мя

E-----4----------5!-------4----------5!
H--6------6--7----!--6---------6--7---!
G-----------------!-------------------!
D-----------------!-------------------!
A-----------------!-------------------!
E-----------------1-------------------!
  ни вет-ра ни сна  кто вспом-нит ме-ня

E--6----------------------------!-----------------!
H-----7--7--------------------7-!-5--7---9--7--5--!
G--------------6-----------6----!-----------------!
D-----------8-------8-----------!-----------------!
A-------------------------------!-----------------!
E-------------------------------!-----------------!
  как бы я хо-тел плыть в лод-ке  мо-рем на за-кат
(вольным быть как зверь свободный и растить свой сад)

E-------------------------------------!---------------!
H------7------6----7------9--------10-!-------7------9!
G--4-------6---------9----------------!----7-----7----!
D-------------------------------------!-9-------------!
A-------------------------------------!---------------!
E-------------------------------------!---------------!
  жить бы лет до ста и любить как все  лю-бят на зем-ле
Related for Svet Dnevnoj Issyak tab
Advertisement will be closed in 10 seconds