Song name
# A B C D E F G H I J K L M N O P Q R S T U V W X Y Z

Kirito - Period tab

Im supprised no one has submitted anything from Kirito's
solo project, it's really quite good. This song in particular
is beautiful.

Key
x = mute
/ = slide up
~ = rest

Verse1
|---------8---|
|---5-6-8---8-|
|-5-----------|
|-------------|
|-------------|
|-------------|

Verse2
|-------------------------------------------------|
|-5-x-x-x-5-x-x-x-5-x-x-x-5-x-x-x-6-x-x-x-8-x-8-x-|
|-------------------------------------------------|
|-------------------------------------------------|
|-------------------------------------------------|
|-------------------------------------------------|

|-------------------------------------------8-|
|-5-x-x-x-5-x-x-x-5-x-x-x-5-x-x-x-6-x-x-x-8---|
|---------------------------------------------|
|---------------------------------------------|
|---------------------------------------------|
|---------------------------------------------|

Chorus
C-Fmaj7-Am-Fmaj7

Verse3
|-----------------------------------------|
|-5-x-x-x-5-x-x-x-5-x-x-x-6-x-x-x-8-x-x-x-|
|-----------------------------------------|
|-----------------------------------------|
|-----------------------------------------|
|-----------------------------------------|

|---------------------------------8-|
|-5-x-x-x-5-x-x-x-6-x-x-x-6-x-x-x---|
|-----------------------------------|
|-----------------------------------|
|-----------------------------------|
|-----------------------------------|

|---------------------------------8-|
|-5-x-x-x-6-x-x-x-5-x-x-x-6-x-x-x---|
|-----------------------------------|
|-----------------------------------|
|-----------------------------------|
|-----------------------------------|

Bridge
|-----8-------------6-------------8-------------6-----6-|
|---6-----6-8-6---4-----3-4-3---6-----6-8-6---4-----6---|
|-5-----5-------5-----0-------7-----5-------5-----3-----|
|-------------------------------------------------------|
|-------------------------------------------------------|
|-------------------------------------------------------|

Solo
|-----------------------------------|
|-8-6-8-6-5-6-5---------------------|
|---------------7-5~5/8-7-8-7-5-7---|
|---------------------------------8-|
|-----------------------------------|
|-----------------------------------|

http://www.neocycloid.jp/index2.html

Comments email me at Vallian88@hotmail.com
Tap to rate this tab
# A B C D E F G H I J K L M N O P Q R S T U V W X Y Z