Song name
# A B C D E F G H I J K L M N O P Q R S T U V W X Y Z

Kirk Franklin - I Am God tab

Please rate this, this is my first tab
h= hammer on
s=slide
                                      Intro/verse1

E---------------------------------------------------------------------------|   Repeat once
B---------------------------------------------------------------------------|   Not the 2nd
G---------------------------------------------------------------------------|   Time though
D---------------------------------------------------------------------------|
A-----------------------------------------1h3-1h3-1h3-1h3xxxx1h3-1h3-1h3-1h3|
E--5h6-5h6-5h6-5h6-----3h5-3h5--3h5-3s1-------------------------------------|

E-------------------------------------------------------------|
B-------------------------------------------------------------|
G-------------------------------------------------------------|
D-------------------------------------------------------------|
A-------------------------------1h3-1h3-1h3----1h3-1h3-1h3----|
E--5h6-5h6-5h6---3h5-3h5-3h5----------------------------------|
Go back to intro then back to this, its an altenating pattern....

                              Chorus Intro
E--------------------------------------------------|
B--------------------------------------------------|
G--------------------------------------------------|
D----------------5-5-5-5-5-5-5-5-------------------|
A-8-------7------3-3-3-3-3-3-3-3-------------------|
E-6-------5----------------------------------------|

E-----------------------------------------------------------------| Repeat once
B-----------------------------------------------------------------|
G-----------------------------------------------------------------|
D----------------------5------------------------------------------|
A-8---------7----------3do15times---------------------------------|
E-6do8times-5do8times---------------------------------------------|

                            Verse 2 (Toby Mac)
E--------------------------------------------------------------|
B--------------------------------------------------------------|
G--------------------------------------------------------------|
D--------------------------------------------------------------|
A--------------------------------1h3-1h3-1h3--xxx-1h3-1h3-1h3--|
E-5h6-5h6-5h6----3h5-3h5-3h5-----------------------------------|

E---------------------------------------------------------|
B---------------------------------------------------------|
G---------------------------------------------------------|
D-----------------3-3-3---3-3-3-----5-5-5-----5-5-5-------|
A-----------------1-1-1---1-1-1-----3-3-3-----3-3-3-------|
E--5h6-5h6-5h6--------------------------------------------|
                 the song changes and it goes to some cool violin solo and it does
that twice then goes to
E-----------------------------------------------------|
B-----------------------------------------------------|
G-----------------------------------------------------|
D-----------------------------------------------------|
A-3---------------------------------------------------|
E-1do15times------------------------------------------|
                    Goes soft here then back to the chorus intro and then on to chorus.
 Hope it was good enough for everyone
Tap to rate this tab
 
# A B C D E F G H I J K L M N O P Q R S T U V W X Y Z