Song name
# A B C D E F G H I J K L M N O P Q R S T U V W X Y Z

Kirko Bangz - Drank In My Cup tab

-------------------------------------------------------------------------------
                             DRANK IN MY CUP - kirko bangz
-------------------------------------------------------------------------------
Tabbed by: Nick Hepburn
E-mail: nick8_gnr@hotmail.com

Tuning: Standard

***NOTE: During the intro and choruses both parts are playing. During the verses only 
guitar 2 is playing.

Have fun.

Guitar 1

  C#m  G#m      C#m  G#m
e|---------------9---11---------|
B|-9----9--------9---12---------|
G|-9----8--------9---13---------|
D|-11---9-----------------------|
A|------------------------------|
E|------------------------------|

Guitar 2

  C#5 G#5       F#5  E5
e|------------------------------|
B|------------------------------|
G|-6----------------------------|
D|-6---6---------4---2----------|
A|-4---6---------4---2----------|
E|-----4---------2---0----------|


************************************

| /   slide up
| \   slide down
| h   hammer-on
| p   pull-off
| ~   vibrato
| +   harmonic
| x   Mute note
| b   Bend
| pb  Pre-bend
| br  Bend release
| pbr Pre-bend release
| brb Bend release bend

************************************
Tap to rate this tab
# A B C D E F G H I J K L M N O P Q R S T U V W X Y Z