Song name
# A B C D E F G H I J K L M N O P Q R S T U V W X Y Z

Kiros - City Lights tab

-----------------------------------------------------------------------------
			     CITY LIGHTS - Kiros
-----------------------------------------------------------------------------
Tabbed by:TheWhiteBandit
Tuning: Standard

Intro:
Gtr. 1
E|----------|------------|---------|------12--|
B|-9-9h10-9-|9-9h10-9----|9-9h10-9-|9-9h10--10|
G|--9------9|-9------11p9|-9------9|-9--------|
D|----------|------------|---------|----------|
A|----------|------------|---------|----------|
E|----------|------------|---------|----------|
Gtr. 2
e|-------------------------------------------------------------------------|
B|-------------------------------------------------------------------------|
G|-----------------6666------------6666------------6666--------------------|
D|-XXXX-222222222226666999999999999666677777777777766669999999999999999----|
A|-XXXX-222222222224444999999999999444477777777777744449999999999999999----|
E|-XXXX-00000000000----777777777777----555555555555----7777777777777777----|


Verse 1:
Gtr. 1
e|---0-------0--------0---------0-|
B|-----0-------0--------0-----0---|
G|--------------------------------|
D|-2-------7-------11-------9-----|
A|-2-------7-------11-------9-----|
E|-0-------5-------9--------7-----|

Gtr. 1
e|--------------------------------|
B|--------------------------------|
G|--------------------------------|
D|-2-------7-------11-------9-----|
A|-2-------7-------11-------9-----|
E|-0-------5-------9--------7-----|
Gtr. 2
e|---0-0-----0--0-----0-0---0-----|
B|---9-5-----10-5-----9-5---7-----|
G|--------------------------------|
D|--------------------------------|
A|--------------------------------|
E|--------------------------------|

Gtr. 1
e|-------------|
B|-9-5~---7/12-|
G|-------------|
D|-------------|
A|-------------|
E|-------------|
Gtr. 2
e|-------------|
B|-------------|
G|-------------|
D|---7-------9-|
A|---7-------9-|
E|---5-------7-|


Chorus:
Gtr. 1
E|----------|------------|---------|------12--|
B|-9-9h10-9-|9-9h10-9----|9-9h10-9-|9-9h10--10|
G|--9------9|-9------11p9|-9------9|-9--------|  2X
D|----------|------------|---------|----------|
A|----------|------------|---------|----------|
E|----------|------------|---------|----------|
Gtr. 2
e|-----------------------------------------------------------------------|
B|-----------------------------------------------------------------------|
G|-----------------6666------------6666------------6666------------------|2X
D|-XXXX-222222222226666999999999999666677777777777766669999999999999999--|
A|-XXXX-222222222224444999999999999444477777777777744449999999999999999--|
E|-XXXX-00000000000----777777777777----555555555555----7777777777777777--|


Verse 2:
Gtr. 1
e|------------------------------------|
B|------------------------------------|
G|------------------------------------|
D|-----6-------4---------2--------4---|
A|------------------------------------|
E|------------------------------------|
Gtr. 2
e|--------------------------------------|
B|--------------------------------------|
G|--------------------------------------|
D|-2-2-2---7-7-7---11-11-11---9-9-9-----|
A|-2-2-2---7-7-7---11-11-11---9-9-9-----|
E|-0-0-0---5-5-5---9--9--9----7-7-7-----|
P.M---|    ---|    -----|     ----------|

Gtr. 1
e|--------------------------|  |--------------------------------------|
B|-----------12-------------|  |-----------12-------------------------|
G|-9-8-9-8-9----8-9-8-9-8---|3X|-9-8-9-8-9----8-9-8-9-8---9--9-9/10---|
D|------------------------9-|  |------------------------9-------------|
A|--------------------------|  |--------------------------------------|
E|--------------------------|  |--------------------------------------|
P.M---------|   ---------|       -------------------------------------|
                                                     Gtr.2
					            e|-------------|
					            B|-------------|
					            G|-------------|
					            D|---7-------9-|
					            A|---7-------9-|
					            E|---5-------7-|


Chorus:
Gtr. 1
E|----------|------------|---------|------12--|
B|-9-9h10-9-|9-9h10-9----|9-9h10-9-|9-9h10--10|
G|--9------9|-9------11p9|-9------9|-9--------|  2X
D|----------|------------|---------|----------|
A|----------|------------|---------|----------|
E|----------|------------|---------|----------|
Gtr. 2
e|-------------------------------------------------------------------------|
B|-------------------------------------------------------------------------|
G|-----------------6666------------6666------------6666--------------------|
D|-XXXX-222222222226666999999999999666677777777777766669999999999999999----|
A|-XXXX-222222222224444999999999999444477777777777744449999999999999999----|
E|-XXXX-00000000000----777777777777----555555555555----7777777777777777----|
continuing...
e|--------------------------------------------------------------------|
B|--------------------------------------------------------------------|
G|------------6666------------6666------------6666--------------------|
D|-222222222226666999999999999666677777777777766669999999999999999----|
A|-222222222224444999999999999444477777777777744449999999999999999----|
E|-00000000000----777777777777----555555555555----7777777777777777----|


Bridge:
Gtr. 2
e|-----------------------------------------------------------------|
B|-----------------------------------------------------------------|
G|-6--6-6-6-6-6-6-6-6-6-6-6-6-6-66---------------------------------|
D|-6--6-6-6-6-6-6-6-6-6-6-6-6-6-66-7--7-7-7-7-7-7-7-7-7-7-7-7-7-77-|
A|-4--4-4-4-4-4-4-4-4-4-4-4-4-4-44-7--7-7-7-7-7-7-7-7-7-7-7-7-7-77-|
E|---------------------------------5--5-5-5-5-5-5-5-5-5-5-5-5-5-55-|
continuing...
|-----------------------------------------------------------------|
|-----------------------------------------------------------------|
|---------------------------------4--4-4-4-4-4-4-4-4-4-4-4-4-4-44-|4X
|-2--2-2-2-2-2-2-2-2-2-2-2-2-2-22-4--4-4-4-4-4-4-4-4-4-4-4-4-4-44-|
|-2--2-2-2-2-2-2-2-2-2-2-2-2-2-22-2--2-2-2-2-2-2-2-2-2-2-2-2-2-22-|
|-0--0-0-0-0-0-0-0-0-0-0-0-0-0-00---------------------------------|

Gtr. 1  Second time on the bridge
e|---0-0-----0--0-----0-0---0-----|
B|---9-5-----10-5-----9-5---7-----|
G|--------------------------------|
D|--------------------------------|
A|--------------------------------|
E|--------------------------------|

Gtr. 1  Third and Fourth time on the bridge
e|-------------------------------------------------|
B|----------------------This is 11, not 1----------|
G|999999999999999911111111111111111111111111111111-|
D|-------------------------------------------------|
A|-------------------------------------------------|
E|-------------------------------------------------|
continuing...
|-------------------------------------------------|
|----------------9999999999999999-----------------|
|9999999999999999---------------------------------|
|-------------------------------------------------|
|-------------------------------------------------|
|-------------------------------------------------|

Gtr. 1
e|-----------|
B|----9------|
G|-9~---9----|
D|--------9--|
A|-----------|
E|-----------|


Acoustic Break:
e|-0--0-0-0-0-0-0-0--0--0-0-0-0-0-0-0--0--0-0-0-0-0-0-0--0--|
B|-0--0-0-0-0-0-0-0--0--0-0-0-0-0-0-0--0--0-0-0-0-0-0-0--0--|
G|-1--1-1-1-1-1-1-1--4--4-4-4-4-4-4-4--2--2-2-2-2-2-2-2--4--|
D|-2--2-2-2-2-2-2-2--4--4-4-4-4-4-4-4--2--2-2-2-2-2-2-2--4--|
A|-2--2-2-2-2-2-2-2--2--2-2-2-2-2-2-2--0--0-0-0-0-0-0-0--2--|
E|-0--0-0-0-0-0-0-0-----------------------------------------|


Chorus:
Gtr. 1
E|----------|------------|---------|------12--|
B|-9-9h10-9-|9-9h10-9----|9-9h10-9-|9-9h10--10|
G|--9------9|-9------11p9|-9------9|-9--------|  2X
D|----------|------------|---------|----------|
A|----------|------------|---------|----------|
E|----------|------------|---------|----------|
Gtr. 2
e|-------------------------------------------------------------------------|
B|-------------------------------------------------------------------------|
G|-----------------6666------------6666------------6666--------------------|
D|-XXX--222222222226666999999999999666677777777777766669999999999999999----|
A|-XXX--222222222224444999999999999444477777777777744449999999999999999----|
E|-XXX--00000000000----777777777777----555555555555----7777777777777777----|


Solo:
Gtr. 1
e|--------------------------------------------9---------------|
B|-9----------------------------------------------------------|
G|-11br-11br-9-------------------------9-11pb---11pbr11pb-9-9-|
D|-------------11-111111-9-(9)11-9-9h11-----------------------|
A|------------------------------------------------------------|
E|------------------------------------------------------------|
continue...
|--------------------------------------------------|
|--------------------------------------------------|
|-9-9-9\8-8-8\6-6-6\4-4-4-4/6\4~-------------------|
|--------------------------------------------------|
|--------------------------------------------------|
|--------------------------------------------------|
Gtr. 2
e|-------------------------------------------------------------------------|
B|-------------------------------------------------------------------------|
G|-----------------6666------------6666------------6666--------------------|
D|-XXXX-222222222226666999999999999666677777777777766669999999999999999-2--|
A|-XXXX-222222222224444999999999999444477777777777744449999999999999999-2--|
E|-XXXX-00000000000----777777777777----555555555555----7777777777777777-0--|

I would have just updated my last tab, but it would just say it's an intro. Listen to 
timing, and I'm pretty sure you'll get it. This is my first full tab, so please actually 
it (whether you like it or not, as long as you've heard the song too).

************************************

| /   slide up
| \   slide down
| h   hammer-on
| p   pull-off
| ~   vibrato
| x   Mute note
| b   Bend
| pb  Pre-bend
| br  Bend release
| pbr Pre-bend release
| P.M Palm Mute
| ()  Grace Note
************************************
Tap to rate this tab
# A B C D E F G H I J K L M N O P Q R S T U V W X Y Z