Song name
# A B C D E F G H I J K L M N O P Q R S T U V W X Y Z

Kishida Kyoudan And The Akeboshi Rockets - Highschool Of The Dead tab

Song: HIGHSCHOOL OF THE DEAD
Artist: Kishida Kyodan & The Akeboshi Rockets
Anime: Highschool of the Dead [学園黙示録]
Type: OP - Opening (TV size)
TAB by: komarEX (http://www.youtube.com/user/komarEXcam)

Copyright  2012 by komarEX, All rights reserved


e|-------------------------| x3
B|-------------------------|
G|-----7-9-9-9-------------|
D|-9-9---------7-7-7-8-8-8-|
A|-------------------------|
E|-------------------------|


e|--------------5--6-|
B|--------------5--6-|
G|-----7-9-9-9--5--6-|
D|-9-9----------7--8-|
A|--------------7--8-|
E|--------------5--6-|


e|-0---0--0----0--10--0----0--0---0---0---0--0-|
B|-8--10--8----8---0--8----8--7--13--12--10--8-|
G|-0---0--0----0---7--0----0--0---0---0---0--0-|
D|-5---7--5----5---0--5----5--4--10---9---7--5-|
A|-x---x--x----x---x--x----x--x---x---x---x--x-|
E|-x---x--x----x---x--x----x--x---x---x---x--x-|


e|-0---0--0----0--10--0--/17-17-17-15-------15\-|
B|-8--10--8----8---0--8---------------14-13-----|
G|-0---0--0----0---7--0-------------------------|
D|-5---7--5----5---0--5-------------------------|
A|-x---x--x----x---x--x-------------------------|
E|-x---x--x----x---x--x-------------------------|


e|-x--x--x--x----5--x--5--x----3--x--3--x----5--x--5--x-|
B|-x--x--x--x----5--x--5--x----3--x--3--x----5--x--5--x-|
G|-x--x--x--x----7--x--7--x----5--x--5--x----7--x--7--x-|
D|-2--x--2--x----7--x--7--x----5--x--5--x----7--x--7--x-|
A|-2--x--2--x----5--x--5--x----3--x--3--x----5--x--5--x-|
E|-x--x--x--x----x--x--x--x----x--x--x--x----x--x--x--x-|


e|-x--x--x--x----3--x--3--x----5--x--5--x----2--x--2--x--2--x--3-|
B|-x--x--x--x----3--x--3--x----5--x--5--x----2--x--2--x--2--x--3-|
G|-x--x--x--x----5--x--5--x----7--x--7--x----4--x--4--x--4--x--5-|
D|-2--x--2--x----5--x--5--x----7--x--7--x----4--x--4--x--4--x--5-|
A|-2--x--2--x----3--x--3--x----5--x--5--x----2--x--2--x--2--x--3-|
E|-x--x--x--x----x--x--x--x----x--x--x--x----x--x--x--x--x--x--x-|


e|-------------------------------------------------2-|
B|-------------------------------------------------2-|
G|-------------------------------------------------2-|
D|-2--------------4--------------5--------------4--4-|
A|-2-2-2-2-2-2-2--4-4-4-4-4-4-4--5-5-5-5-5-5-5--4--4-|
E|-0-0-0-0-0-0-0--2-2-2-2-2-2-2--3-3-3-3-3-3-3--2--2-|


e|-x--3--3--5--3--2--3--5-| x2
B|-x--3--3--5--3--2--3--5-|
G|-x--5--3--5--5--4--5--7-|
D|-2--5--5--7--5--4--5--7-|
A|-2--3--5--7--3--2--3--5-|
E|-x--x--3--5--x--x--x--x-|


e|-------------| x2
B|-------------|
G|---3-2-1-0---|
D|-2---------0-|
A|-------------|
E|-------------|


e|-----------------|
B|-----------------|
G|---3-2-1-0-----0-|
D|-2---------0-2---|
A|-----------------|
E|-----------------|


e|-------------| x2
B|-------------|
G|---3-2-1-0---|
D|-2---------0-|
A|-------------|
E|-------------|


e|-----------------|
B|-----------------|
G|---3-2-1-0-----0-|
D|-2---------0-2---|
A|-----------------|
E|-----------------|


Copyright  2012 by komarEX, All rights reserved
Tap to rate this tab
# A B C D E F G H I J K L M N O P Q R S T U V W X Y Z