Song name
# A B C D E F G H I J K L M N O P Q R S T U V W X Y Z

Kishore Kumar - O Mere Dil Ke Chain tab

     =====================================
    \\O Mere Dil Ke Chain - Kishore Kumar \\
      =====================================
Starting:

----------------------------------------------------------|
----------------------------------------------------------|
----------------------------------------------------------|
---------9----------------------9-------------------9-----|
------10---10-12-12-12-------10---12-12-12-------10---12--|
-9-12-------------------9-12----------------9-12----------|

A   Bm   Am
Hmmm...

Am              Em
O mere dil ke chain
Am              Em    D
O mere dil ke chain
               G                Am
chain aye mere dil ko duwa ki jiye

Play this after "jiye"

----------------------------------------------------------|
----------------------------------------------------------|
----------------------------------------------------------|
-10-9----10-9----10-9-------------------------------------|
------12------12------12----------------------------------|
----------------------------------------------------------|

Am              Em
O mere dil ke chain
Am              Em    D
O mere dil ke chain
               G                Am
chain aye mere dil ko duwa ki jiye

----------------------------------------------------------|
----------------------------------------------------------|
----------------------------------------------------------|
-10-9----10-9----10-9-------------------------------------|
------12------12------12----------------------------------|
----------------------------------------------------------|

C             G            F               Am
apna hi saaya dekh ke tum, jaane jahan sharma gaye
C                G           F                   Am
abhi to ye pehli manzil hai, tum to abhi se ghabra gayi
     Em         D        A      E
mera kya hoga socho to zara
             G                Am
haye aise na aahen bhara ki jiye

You must play well with your pick to make it sound good.

I am Shakti and this is my version of O Mere Dil Ke Chain.
I referred more to what's in my mind than the real song
to write this.  If you think it's not exact, have any
suggestion or want to correct something, you can e-mail
me at:
shakti_102@yahoo.co.uk
I wanted to put this on Guitar Pro but it's being
difficult for me.  If someone is good at guitar pro and
knows the song, he can do it and let me know.
Tap to rate this tab
 
# A B C D E F G H I J K L M N O P Q R S T U V W X Y Z