Song name
# A B C D E F G H I J K L M N O P Q R S T U V W X Y Z

Kishore Kumar - Neele Neele Ambar Pe tab

Title: Neele Ambar Par
Artist: Kishore Kumar
Music Director: Bappi Lahiri
Album: Kalakaar

Tabbed by Shakti (shakti_102@yahoo.co.uk)

Standard tuning: EADGBe


Only four chords are used in this song which are:

C - x3201x
Dm - x00231
Bb - xx3331
A - x02220


Intro:

e|------------------------------------------------------------|
B|-----------------------------------2------------------------|
G|---2-3-2-3-2--0-2-0---0------------0------------------------|
D|-0------------------3---3-2-3-2--0--------------------------|
A|------------------------------------------------------------|
E|------------------------------------------------------------|


Neele neele ambar par

e|------------------------------------------------------------|
B|-5-6-5-6-5-6-5----------------------------------------------|
G|------------------------------------------------------------|
D|------------------------------------------------------------|
A|------------------------------------------------------------|
E|------------------------------------------------------------|

Chand jab aye

e|------------------------------------------------------------|
B|---5-6-5---5-6----------------------------------------------|
G|-7-------7--------------------------------------------------|
D|------------------------------------------------------------|
A|------------------------------------------------------------|
E|------------------------------------------------------------|

Pyar barsaye

e|------------------------------------------------------------|
B|-----5-6-6s8-8s10-8s5-5-------------------------------------|
G|-5-7--------------------------------------------------------|
D|------------------------------------------------------------|
A|------------------------------------------------------------|
E|------------------------------------------------------------|

Humko tarsaye

e|--------------5---------------------------------------------|
B|-6-5-6-5-6-5--5---------------------------------------------|
G|--------------6---------------------------------------------|
D|--------------7---------------------------------------------|
A|--------------7---------------------------------------------|
E|--------------5---------------------------------------------|

Aisa koi saathi ho

e|--------------8s10------------------------------------------|
B|---5-6-8-8s10-----------------------------------------------|
G|-7----------------------------------------------------------|
D|------------------------------------------------------------|
A|------------------------------------------------------------|
E|------------------------------------------------------------|


Aisa koi premi ho

e|----------8-10s12-------------------------------------------|
B|-5-6-8-10---------------------------------------------------|
G|------------------------------------------------------------|
D|------------------------------------------------------------|
A|------------------------------------------------------------|
E|------------------------------------------------------------|


Pyaas dil ki bhuja jaye
                        A
e|------------------------------------------------------------|
B|-5-6-8-6-8-6-8-6--------------------------------------------|
G|------------------------------------------------------------|
D|------------------------------------------------------------|
A|------------------------------------------------------------|
E|------------------------------------------------------------|

         Dm
e|------------------------------------------------------------|
B|------------------------------------------------------------|
G|--------------------0------------------------0--------------|
D|---------0-2-0--0-2---3-2-0---0----0-2-0--0-2--3-2-0---0----|
A|-12s5--0--------------------3----0-------------------3------|
E|------------------------------------------------------------|

   Dm       C         Bb                Dm
e|------------------------------------------------------------|
B|------------------------------------------------------------|
G|-7-10-9-7----9-7--------------------------------------------|
D|----------10-----10-7-10-8-7--------------------------------|
A|-----------------------------10-8-7-8-5---------------------|
E|------------------------------------------------------------|


Verse:

            C
Neele neele ambar par

          Dm
Chand jab aye

        C
Pyar barsaye

         Dm
Humko tarsaye

         Dm
Aisa koi saathi ho

         C
Aisa koi premi ho

          Bb         A
Pyaas dil ki bhuja jaye

            C
Neele neele ambar par

          Dm
Chand jab aye

        C
Pyar barsaye

         Dm
Humko tarsaye


Solo:

             Dm                       C
e|------------------------------------------------------------|
B|------------------------------------------------------------|
G|--------------------------------4-5-4s5-5-5-5-7-4-5---------|
D|-------5-6-6s7-7-7-7-8-5-7--7-8-----------------------------|
A|-5-7-8------------------------------------------------------|
E|------------------------------------------------------------|

   Dm                    C            Dm    C     Bb
e|------------------------------------------------------------|
B|-----4-5----5-6-5-6-5----3-5-3-5-3--6-6-6-5-5-5-3-----------|
G|-5-7------7------------5------------------------------------|
D|------------------------------------------------------------|
A|------------------------------------------------------------|
E|------------------------------------------------------------|

                  Dm                  C  Bb                  A
e|-------------------------------------------7-8-7-5---------5|
B|----------------------5------------------8---------8-6-5-6--|
G|-5-7-5--------------7---7-------7-6-5--5--------------------|
D|-------8-5--------7-------7---7-----------------------------|
A|-----------8-5--5-----------5-------------------------------|
E|------------------------------------------------------------|


Bridge:

   Dm
Ho unche unche parvat

                  C
Jab choomte hai ambar ko

Bb
Pyasa pyasa ambar

                   A
Jab jhoomta hai saagar ko

(X2)


Verse:

        C
Pyar se kasne ko

           Dm
Bahon mein basne ko

         C
Dil mera laljaye

       Dm
Koi to aa jaye

         Dm
Aisa koi saathi ho

         C
Aisa koi premi ho

          Bb         A
Pyaas dil ki bhuja jaye

            C
Neele neele ambar par

          Dm
Chand jab aye

        C
Pyar barsaye

         Dm
Humko tarsaye


2nd Solo:

  Dm ///                                Dm               C
e|------------------------------------------------------------|
B|------------------------------------------------------------|
G|------------------------------------------------------------|
D|---7---7-8-10-7--------------7-8-10--10-12-10--8-10-8--7-8-7|
A|------------------7-8-10-7----------------------------------|
E|------------------------------------------------------------|

          Bb            A             Bb
e|------------------------------------6-----------------------|
B|------------------------------------6-----------------------|
G|------------------------------------7-----------------------|
D|-5-7-5--3-5-3--2-3-2----------------8-----------------------|
A|----------------------5-7-5--3-5-3--8-----------------------|
E|------------------------------------6-----------------------|

  Bb                 C                    Dm
  ///////////////////////////////////////
e|----------------------------------------5-------------------|
B|-------------------------------------8--6-------------------|
G|------------------------------7-9-10----7-------------------|
D|---------------7-8----7-8-10------------7-------------------|
A|--------7-8-10-----10-------------------5-------------------|
E|-6-8-10---------------------------------5-------------------|



The next part goes like the same but the lyrics changes a bit.


This tab is pretty accurate. If you play it along with the original song, you'll find that it 
completely match.  Tune your guitar well as written above and you will know how to manage with
the pick by listening to the song.

Notice to novice players: Bb is also known as A#

Barred chords can also be used for this song and they are as follows:

        C       Dm      Bb      A
e|------3--------5------6-------5-----------------------------|
B|------5--------6------6-------5-----------------------------|
G|------5--------7------7-------6-----------------------------|
D|------5--------7------8-------7-----------------------------|
A|------3--------5------8-------7-----------------------------|
E|------3--------5------6-------5-----------------------------|
Tap to rate this tab
# A B C D E F G H I J K L M N O P Q R S T U V W X Y Z