Song name
# A B C D E F G H I J K L M N O P Q R S T U V W X Y Z

Kishore Kumar - Neele Neele Ambar Pe tab

E---------------------------------------------------------------------------|
B---------------------------------------------------------------------------|
G---2--3-2--3-2--3-2-3-2----0-2-0---0------------7--------------------------|
D-0-------------------------------3---3-2-3-2----7--------------------------|
A------------------------------------------------5--------------------------|
E----------------------------------------------5----------------------------|

Neele neele ambar par
-----------------------------------------------------------------------------|
----------------------5-6-5-6-5-6-5h6p5--------------------------------------|
-----------------------------------------------------------------------------|
-----------------------------------------------------------------------------|
-----------------------------------------------------------------------------|
-----------------------------------------------------------------------------|

Chaand jab aaye
-----------------------------------------------------------------------------|
------------------------5-6-5----5-6p5---------------------------------------|
----------------------7--------7---------------------------------------------|
-----------------------------------------------------------------------------|
-----------------------------------------------------------------------------|
-----------------------------------------------------------------------------|

Pyaar barsaaye
-----------------------------------------------------------------------------|
--------------------------5-6-8-8/10-8p6-5-----------------------------------|
----------------------5-7----------------------------------------------------|
-----------------------------------------------------------------------------|
-----------------------------------------------------------------------------|
-----------------------------------------------------------------------------|

Humko tarsaaye
-----------------------------------------------------------------------------|
----------------------6-5--6-5--6-5------------------------------------------|
--------------------------------------7--------------------------------------|
--------------------------------------7--------------------------------------|
--------------------------------------5--------------------------------------|
--------------------------------------5--------------------------------------|

Aisa koi saathi ho
------------------------------10---------------------------------------------|
-------------------5-6-8-8/10------------------------------------------------|
-----------------7-----------------------------------------------------------|
-----------------------------------------------------------------------------|
-----------------------------------------------------------------------------|
-----------------------------------------------------------------------------|

Aisa koi premi ho
----------------------6-8h10-10/12--12---------------------------------------|
-------------------10--------------------------------------------------------|
----------------10-----------------------------------------------------------|
-----------------------------------------------------------------------------|
-----------------------------------------------------------------------------|
-----------------------------------------------------------------------------|

Pyaas dil ki
-----------------------------------------------------------------------------|
-----------------------------------------------------------------------------|
------------10-11--10-11--10-11--10-11--10h11p10-----------------------------|
-----------------------------------------------------------------------------|
-----------------------------------------------------------------------------|
-----------------------------------------------------------------------------|

Bujha jaaye
-----------------------------------------------------------------------------|
-----------------------------------------------------------------------------|
-------------7---------------------------------------------------------------|
-------------7---------------------------------------------------------------|
-------------5---------------------------------------------------------------|
-----------------------------------------------------------------------------|

[Will be helpful if play it by using barred Dm chord at 5t fret]
-----------------------------------------------------------------------------|
-----------------------------------------------------------------------------|
-----------------------------------------------------------------------------|
------------5------------------------5---------------------------------------|
---5-5----7--8--7-5---------5-5----7--8--7-5---------------------------------|
-5-----5------------8-----5-----5------------8-------------------------------|

[Play the chords below when violin part is being played]
Dm--------------C---------------Bb------------------A-------------------Dm---


[Below is the guitar part in the first antara]
-----------------------------------------------------------------------------|
-----------------------------------------------------------------------------|
----------------------------------------4-4/5-5-5--5--5-5-5-5-5-4--5-7-7-----|
-------5-5-5-7-7-7--7--7-7-7-7-7-5--7-8--------------------------------------|
-5-7-8-----------------------------------------------------------------------|
-----------------------------------------------------------------------------|

[Play below part as fast
as possible]
-----------------------------5-5-5---3-3-3---1-1-1----------------------------|
---5-6-5h6p5-----3-5-3h5p3---6-6-6---5-5-5---3-3-3----------------------------|
-7-------------5-------------7-7-7---5-5-5---3-3-3----------------------------|
-----------------------------7-7-7---5-5-5---3-3-3---7-8-7-5-7-5--5-----------|
-----------------------------x-x-x---x-x-x---x-x-x---------------8--8-7-8-7-5-|
-----------------------------x-x-x---x-x-x---x-x-x----------------------------|
Tap to rate this tab
 
# A B C D E F G H I J K L M N O P Q R S T U V W X Y Z