Guitaretab - guitar tabs
Song name
# A B C D E F G H I J K L M N O P Q R S T U V W X Y Z

Kishore Kumar - Neele Neele Ambar Pe tab

----------------------------------------------------------------------------------------|
--------------------------5-6-5h6p5h6p5h6p5----------------------------5-6-5---5-6------|
---------------------------------------------------------------------7-------7----------|
----------7-5-5h7----------------------------------5------------------------------------|
----5---8-----------8--7-------------------------7----8--8/10/8--7--5-------------------|
----------------------------------------------8-----------------------------------------|

[ Tab from: http://www.guitaretab.com/k/kishore-kumar/83096.html ]
-------------------------------------------------------------------------------------|
--------------------------5-6-5h6p5h6p5h6p5----------------------------5-6-5---5-6---|
---------------------------------------------------------------------7-------7-------|
----------7-5-5h7----------------------------------5---------------------------------|
----5---8-----------8--7-------------------------7----8--8/10--7--5------------------|
----------------------------------------------8--------------------------------------|


----------------------------5-8-8/10-10-10--------10-8-7/8-7-7-------8--6-6-6-8-6-5--|
----------------------5-6-8--------------------6-------------------6-----------------|
----------------7--7------------------------7-------------------7--------------------|
-------------7-----------------------------------------------------------------------|
----8--5--8--------------------------------------------------------------------------|
-------------------------------------------------------------------------------------|

						Dm   C    A#
------------------------------------------------5----3----6--------------------------|
-------6-5------5-------------------------------6----5----6--------------------------|
----7------7--5---7--5----7-5-----5-------------7----5----7--------------------------|
------------------------8-----8-7---5-----------7----5----8--------------------------|
--------------------------------------8-5-------5----3----8--------------------------|
------------------------------------------------5----3----6--------------------------|
Related for Neele Neele Ambar Pe tab
Advertisement will be closed in 10 seconds