Song name
# A B C D E F G H I J K L M N O P Q R S T U V W X Y Z

Kiss Kiss Kiss - Mirrors tab

for ultimate-guitar.com
by: theguitarhero12

Kiss Kiss Kiss
Mirrors
Release the Birds

Chorus:
e--3-4-4-4-3--4-4-3---4-4-4-4-3--6-4-3---3-4-4-4-3--6/--|
b--4-4-4-4-4--4-4-4---4-4-4-4-4--8-4-4---4-4-4-4-4--6/--|
g-------------------------------------------------------|
d-------------------------------------------------------|
a-------------------------------------------------------|
e-------------------------------------------------------|

Bridge:
e------------|
b------------|
g--5-5--5-5--|x3
d------------|
a------------|
e------------|

e--x-x-x-x---4-4-4-4-3--2/3-2/3-2/3--|
b--x-x-x-x---4-4-4-4-4--3/4-3/4-3/4--|
g--x-x-x-x---------------------------|
d--x-x-x-x---------------------------|
a--x-x-x-x---------------------------|
e--x-x-x-x---------------------------|

(Guitar 2 keeps playing the first part)

e--4-4-4-4-3------------|
b--4-4-4-4-4------------|
g-------------5-5--5-5--|
d-----------------------|
a-----------------------|
e-----------------------|

e--4-4-4-4-3--|
b--4-4-4-4-4--|
g-------------|x2
d-------------|
a-------------|
e-------------|

e--x-x-x-x--4-3--|
b--x-x-x-x--4-4--|
g--x-x-x-x-------|x4
d--x-x-x-x-------|
a--x-x-x-x-------|
e--x-x-x-x-------|
Tap to rate this tab
 
# A B C D E F G H I J K L M N O P Q R S T U V W X Y Z