Song name
# A B C D E F G H I J K L M N O P Q R S T U V W X Y Z

Kiss Kiss Kiss - Recorded Smiles tab

for ultimate-guitar.com
by: theguitarhero12


Kiss Kiss Kiss
Recorded Smiles
Release the Birds


Intro:

e--11-11-11-11-10-10-10-10--8--------11-----|
b--11-11-11-11-11-11-11-11-11--11-11-10-10--|
g------------------------------10-10-10-10--|
d-------------------------------------------|
a-------------------------------------------|
e-------------------------------------------|

e--11-11-11-10--8------------------------|
b--11-11-11-11-11--11--11--11--11-11-11--|
g------------------10--10--10--10-10-10--|
d----------------------------------------|
a----------------------------------------|
e----------------------------------------|

e--11-11-10--8--------11-----|
b--11-11-11-11--11-11-10-10--|
g---------------10-10-10-10--|
d----------------------------|
a----------------------------|
e----------------------------|

e--11-11-11-10--8---------------|
b--11-11-11-11-11--11-11-10-11--|
g------------------10-10-10-10--|
d-------------------------------|
a-------------------------------|
e-------------------------------|

e--11-10--8--------11-----|
b--11-11-11--11-11-10-10--|
g------------10-10-10-10--|
d-------------------------|
a-------------------------|
e-------------------------|

e--11-11-11-10--8------------------------------|
b--11-11-11-11-11--11-11-11-11--(11-11-11-11)--|
g------------------10-10-10-10--(10-10-10-10)--|
d----------------------------------------------|
a----------------------------------------------|
e----------------------------------------------|

verse:

e--11--11-11-11-10--10-10-10--5--5-5-6--5--5-5-6--|
b--11--11-11-11-11--11-11-11--6--6-6-6--6--6-6-6--|
g-------------------------------------------------|
d-------------------------------------------------| x4
a-------------------------------------------------|
e-------------------------------------------------|


chorus:

e--8---6-8---8-6-8---8-6-8--8--8--8--6-6-6-6-6-6--|
b--8---8-8---8-8-8---8-8-8--8--8--8--6-6-6-6-6-6--|
g-------------------------------------------------|
d-------------------------------------------------|
a-------------------------------------------------|
e-------------------------------------------------|

e--8--8--8--8--8--8--8--6-6-6-6-6-6--!---8--|
b--8--8--8--8--8--8--8--6-6-6-6-6-6--!---8--|
g------------------------------------!------|
d------------------------------------!x3----|
a------------------------------------!------|
e------------------------------------!------|


break:

e--11-10--8--------11-----|
b--11-11-11--11-11-10-10--|
g------------10-10-10-10--|
d-------------------------|
a-------------------------|
e-------------------------|

e--11-11-11-10--8---------------|
b--11-11-11-11-11--11-11-10-11--|
g------------------10-10-10-10--|
d-------------------------------|
a-------------------------------|
e-------------------------------|

e--11-11-10--8--------11-----|
b--11-11-11-11--11-11-10-10--|
g---------------10-10-10-10--|
d----------------------------|
a----------------------------|
e----------------------------|

e--11-11-11-10--8-----------------(6)--|
b--11-11-11-11-11--11-11-10-11----(6)--|
g------------------10-10-10-10---------|
d--------------------------------------|
a--------------------------------------|
e--------------------------------------|


verse 2:

e-----10-------------------------10-------------8-----------|
b--11----11-11-11-11-11-11-11-11----11-11-11-11---11-11-11--|
g-----------------------------------------------------------|
d-----------------------------------------------------------|
a-----------------------------------------------------------|
e-----------------------------------------------------------|

e-----10-------------8-------------10--------------------------|
b--11----11-11-11-11---11-11-11-11----11-11-11-11-11-11-11-11--|
g--------------------------------------------------------------|
d--------------------------------------------------------------|
a--------------------------------------------------------------|
e--------------------------------------------------------------|


chorus 2:

e--8---6-8---8-6-8---8-6-8--8--8--8--6-6-6-6-6-6--|
b--8---8-8---8-8-8---8-8-8--8--8--8--6-6-6-6-6-6--|
g-------------------------------------------------|
d-------------------------------------------------|
a-------------------------------------------------|
e-------------------------------------------------|

e--8--8--8--8--8--8--8--6-6-6-6-6-6--!---8--|
b--8--8--8--8--8--8--8--6-6-6-6-6-6--!---8--|
g------------------------------------!------|
d------------------------------------!x3----|
a------------------------------------!------|
e------------------------------------!------|


break:

e--11-10--8--------11-----|
b--11-11-11--11-11-10-10--|
g------------10-10-10-10--|
d-------------------------|
a-------------------------|
e-------------------------|

e--11-11-11-10--8---------------|
b--11-11-11-11-11--11-11-11-11--|
g------------------10-10-10-10--|
d-------------------------------|
a-------------------------------|
e-------------------------------|

e--11-11-11-10--8--(------11---)--|
b--11-11-11-11-11--(11-11-10-10)--|
g------------------(10-10-10-10)--|
d---------------------------------|
a---------------------------------|
e---------------------------------|

e--11-11-11-10--8---------------------------|
b--11-11-11-11-11--11-11-11-11-10-10-10-10--|
g------------------10-10-10-10-10-10-10-10--|
d-------------------------------------------|
a-------------------------------------------|
e-------------------------------------------|


bridge:

e--------------8-------------10-------------8-----------|
b--11-11-11-11---11-11-11-11----11-11-11-11---11-11-11--|
g-------------------------------------------------------|
d-------------------------------------------------------|
a-------------------------------------------------------|
e-------------------------------------------------------|

e-----10-------------8-------------10-----------|
b--11----11-11-11-11---11-11-11-11----11-11-11--|
g-----------------------------------------------|
d-----------------------------------------------|
a-----------------------------------------------|
e-----------------------------------------------|

e-----8----10----8----10----8--|
b--11---11----11---11----11----|
g------------------------------|
d------------------------------|
a------------------------------|
e------------------------------|


verse 3:

e--11--11-11-11-10--10-10-10--5--5-5-6--5--5-5-6--|
b--11--11-11-11-11--11-11-11--6--6-6-6--6--6-6-6--|
g-------------------------------------------------|
d-------------------------------------------------| x2
a-------------------------------------------------|
e-------------------------------------------------|


chorus 3:

e--8---6-8---8-6-8---8-6-8--8--8--8--6-6-6-6-6-6--|
b--8---8-8---8-8-8---8-8-8--8--8--8--6-6-6-6-6-6--|
g-------------------------------------------------|
d-------------------------------------------------|
a-------------------------------------------------|
e-------------------------------------------------|

e--8--8--8--8--8--8--8--6-6-6-6-6-6--!---8--|
b--8--8--8--8--8--8--8--6-6-6-6-6-6--!---8--|
g------------------------------------!------|
d------------------------------------!x3----|
a------------------------------------!------|
e------------------------------------!------|


outro:

e--11-11-11-11-10-10-10-10--8--------11-----|
b--11-11-11-11-11-11-11-11-11--11-11-10-10--|
g------------------------------10-10-10-10--|
d-------------------------------------------|
a-------------------------------------------|
e-------------------------------------------|

e--11-11-11-10--8------------------------|
b--11-11-11-11-11--11--11--11--11-11-11--|
g------------------10--10--10--10-10-10--|
d----------------------------------------|
a----------------------------------------|
e----------------------------------------|

e--11-11-10--8--------11-----|
b--11-11-11-11--11-11-10-10--|
g---------------10-10-10-10--|
d----------------------------|
a----------------------------|
e----------------------------|

e--11-11-11-10--8---------------|
b--11-11-11-11-11--11-11-10-11--|
g------------------10-10-10-10--|
d-------------------------------|
a-------------------------------|
e-------------------------------|

e--11-10--8--------11-----|
b--11-11-11--11-11-10-10--|
g------------10-10-10-10--|
d-------------------------|
a-------------------------|
e-------------------------|

e--11-11-11-10--8------------------------------|
b--11-11-11-11-11--11-11-11-11--(11-11-11-11)--|
g------------------10-10-10-10--(10-10-10-10)--|
d----------------------------------------------|
a----------------------------------------------|
e----------------------------------------------|
Tap to rate this tab
# A B C D E F G H I J K L M N O P Q R S T U V W X Y Z