Song name
# A B C D E F G H I J K L M N O P Q R S T U V W X Y Z

Kiss - Everytime I Look At You tab

EVERY TIME I LOOK AT YOU
Paul Stanley, Bob Ezrin

 INTRO
Eb|--3----3---3-0--0--3--5------------------------------|
Bb|--3----3---3-1--3--5--7------------------------------|
Gb|--0----0---0-2--4--5--7------------------------------|
Db|--0----0-----2--4--5--7------------------------------|
Ab|--x----x-----0-----3--5------------------------------|
Eb|--3----3---------------------------------------------| (2x)





Eb|--3-----------------3--------3-----------------------|
Bb|--3-----------------1--------1-----------------------|
Gb|--0-----------------2--------0--------0--------------|
Db|--0-----------------3--------2----0h2----------------|
Ab|--x--------------------------3-----------------------|
Eb|--3--------------------------------------------------|


                                            
Eb|--3--------2---------1--------0----------------------|
Bb|--3--------3---------1--------1----1--3--------------|
Gb|--0--------4---------2--------0----0--0--------------|
Db|--0--------4---------3--------2----2--0--------------|
Ab|--x--------2---------3--------3----3--2--------------|
Eb|--3------------------1-------------------------------|

Tryin' to say I'm sorry, didn't mean to break your heart 
And find you waitin' up by the light of day 
There's a lot I want to tell you, but I don't know where to start 
And I don't know what I'd do if you walked away 

Eb|--0-----------------2----2--2-2-3--2--0--2-----------|
Bb|--1-----------------3----3--3-3-3--3--3--3-----------|
Gb|--2-----------------2----2------2--2--2--2-----------|
Db|--2-----------------0----0------0--0--0--0-----------|
Ab|--0--------------------------------------------------|
Eb|-----------------------------------------------------|


                                         
Eb|--0-----------------0--------2-----------------------|
Bb|--1-----------------1--------3-----------------------|
Gb|--2-----------------0--------2-----------------------|
Db|--2-----------------2--------0-----------------------|
Ab|--0-----------------3--------------------------------|
Eb|-----------------------------------------------------|
Ooh, baby I tried to make it, I just got lost along the way 


Eb|--3----3---3-0--0--3--5-------5--------5-------------|
Bb|--3----3---3-1--3--5--7----------7--------5h7--------|
Gb|--0----0---0-2--4--5--7------------7----------7------|
Db|--0----0-----2--4--5--7------------------------------|
Ab|--x----x-----0-----3--5------------------------------|
Eb|--3----3---------------------------------------------|(2x)
But every time I look at you, no matter what I'm goin' thru, it's easy to see 


Eb|--0--------2---------3--------0--0--3--5-------------|
Bb|--0--------3---------3--------1--3--5--7-------------|
Gb|--0--------2---------0--------2--4--5--7-------------|
Db|--2--------0---------0--------2--4--5--7-------------|
Ab|--2------------------x--------0-----3--5-------------|
Eb|--0------------------3-------------------------------|


                                               
Eb|------5--------3-3-3-3-3/5---------------------------|
Bb|---------7-----5-5-5-5-5/7---------------------------|
Gb|-----------7---5-5-5-5-5/7---------------------------|
Db|---------------5-5-5-5-5/7---------------------------|
Ab|-----------------------------------------------------|
Eb|-----------------------------------------------------|
And every time I hold you, the things I never told you, seem to come easily 
'Cause you're everything to me 

                                                      
Eb|--3----------------3------------3--------3-----------|
Bb|--3------1p0---0---1------------3--------1-----------|
Gb|--0----0-----2---0-0--------0---0--------0--------0--|
Db|--0----------------2----0h2-----0--------2----0h2----|
Ab|--x----------------3------------x--------3-----------|
Eb|--3-----------------------------3--------------------|




Eb|--3-----------------3--------3-----------------------|
Bb|--3-----------------1--------1-----------------------|
Gb|--0-----------------2--------0--------0--------------|
Db|--0-----------------3--------2----0h2----------------|
Ab|--x--------------------------3-----------------------|
Eb|--3--------------------------------------------------|


                                            
Eb|--3--------2---------1--------0----------------------|
Bb|--3--------3---------1--------1----1--3--------------|
Gb|--0--------4---------2--------0----0--0--------------|
Db|--0--------4---------3--------2----2--0--------------|
Ab|--x--------2---------3--------3----3--2--------------|
Eb|--3------------------1-------------------------------|

I never really wanted to let you get inside my heart 
I wanted to believe this would soon be ending 
I thought it wouldn't matter, if it all just came apart 
But now I realize I was just pretending 

Eb|--0-----------------2----2--2-2-3--2--0--2-----------|
Bb|--1-----------------3----3--3-3-3--3--3--3-----------|
Gb|--2-----------------2----2------2--2--2--2-----------|
Db|--2-----------------0----0------0--0--0--0-----------|
Ab|--0--------------------------------------------------|
Eb|-----------------------------------------------------|


                                         
Eb|--0-----------------0--------2-----------------------|
Bb|--1-----------------1--------3-----------------------|
Gb|--2-----------------0--------2-----------------------|
Db|--2-----------------2--------0-----------------------|
Ab|--0-----------------3--------------------------------|
Eb|-----------------------------------------------------|
Ooh, baby, I know I hurt you, but you can still believe in me 

Eb|--3----3---3-0--0--3--5-------5--------5-------------|
Bb|--3----3---3-1--3--5--7----------7--------5h7--------|
Gb|--0----0---0-2--4--5--7------------7----------7------|
Db|--0----0-----2--4--5--7------------------------------|
Ab|--x----x-----0-----3--5------------------------------|
Eb|--3----3---------------------------------------------| (2x)
But every time I look at you, no matter what I'm goin' thru, it's easy to see 

Eb|--0--------2---------3--------0--0--0--2-------------|
Bb|--0--------3---------3--------1--3--1--3-------------|
Gb|--0--------2---------0--------2--4--0--2-------------|
Db|--2--------0---------0--------2--4--2--0-------------|
Ab|--2------------------x--------0-----3----------------|
Eb|--0------------------3-------------------------------|


                                               
Eb|------5--------3-3-3-3-3/5---------------------------|
Bb|---------7-----5-5-5-5-5/7---------------------------|
Gb|-----------7---5-5-5-5-5/7---------------------------|
Db|-----------------------------------------------------|
Ab|-----------------------------------------------------|
Eb|-----------------------------------------------------|
And every time I hold you, the things I never told you, seem to come easily 
'Cause you're everything to me 


                                               
Eb|-----------------------------------------------------|
Bb|-----------------------------------------------------|
Gb|-----------------------5-----------------------------|
Db|--3--------------------5-----------------------------|
Ab|--3--------------------3--------3--5--7--3-----------|
Eb|--1--------1--3--5-----------------------------------|


                                                
Eb|-----------------------------------------------------|
Bb|-----------------------------------------------------|
Gb|--------------------------7--------7----5------------|
Db|--5-----------------------7--------7----5------------|
Ab|--5------------5--5h7-5---5--------5----3------------|
Eb|--3--------5/7---------------------------------------|


                                               
Eb|-----------------------------------------------------|
Bb|-----------------------------------------------------|
Gb|-----------------------5-----------------------------|
Db|--3--------------------5-----------------------------|
Ab|--3--------------------3--------3--5--7--3-----------|
Eb|--1--------1--3--5-----------------------------------|


                                            
Eb|-----------------------------------------------------|
Bb|-----------------------------------------------------|
Gb|--7------7--7----------------------------------------|
Db|--7------7--7---------2------2--2--------------------|
Ab|--5------5--5---------2------2--2--------------------|
Eb|----------------------0------0--0--------------------|
It's gonna take a little time to show you, just what you mean to me, oh yeah 
It seems the more I get to know you, the more I need to make you see 
You're everything I need, yeah 



Eb|-----------------------------------------------------|
Bb|---------------------3------3------------------------|
Gb|--2------2-----------2------2------------------------|
Db|--2------2-----------0------0------------------------|
Ab|--0------0-------------------------------------------|
Eb|-----------------------------------------------------|


                                           
Eb|-----------------------------------------------------|
Bb|---------------------3--------3----------------------|
Gb|--2------2-----------2--------2----------------------|
Db|--2------2-----------0--------0----------------------|
Ab|--0------0-------------------------4-----------------|
Eb|-----------------------------------------------------|

Oho, I need ya, I need ya, I need ya... 

Eb|--0-----------------2----2--2-2-3--2--0--2-----------|
Bb|--1-----------------3----3--3-3-3--3--3--3-----------|
Gb|--2-----------------2----2------2--2--2--2-----------|
Db|--2-----------------0----0------0--0--0--0-----------|
Ab|--0--------------------------------------------------|
Eb|-----------------------------------------------------|


                                         
Eb|--0-----------------0--------2-----------------------|
Bb|--1-----------------1--------3-----------------------|
Gb|--2-----------------0--------2-----------------------|
Db|--2-----------------2--------0-----------------------|
Ab|--0-----------------3--------------------------------|
Eb|-----------------------------------------------------|


Ooh, baby, baby, baby, I know I hurt you, but you can still believe in me 
                                               
Eb|--3----3---3-0--0--3--5------------------------------|
Bb|--3----3---3-1--3--5--7------------------------------|
Gb|--0----0---0-2--4--5--7------------7*----------------|
Db|--0----0-----2--4--5--7------------7*----------------|
Ab|--x----x-----0-----3--5-------5*---------------------|
Eb|--3----3---------------------------------------------|

But every time I look at you, no matter what I'm goin' thru, it's easy to see 
Eb|--0---0-------------2--------3-----3-----0--0--3--5--|
Bb|--0------0--------3----3-----3--------3--1--3--5--7--|
Gb|--0--------0----2--------2---0--0--------2--4--5--7--|
Db|--2-----------0--------------0-----------2--4--5--7--|
Ab|--2--------------------------x-----------0-----3--5--|
Eb|--0--------------------------3-----------------------|



Eb|------5--------3-3-3-3-3/5---------------------------|
Bb|---------7-----5-5-5-5-5/7---------------------------|
Gb|-----------7---5-5-5-5-5/7---------------------------|
Db|---------------5-5-5-5-5/7---------------------------|
Ab|-----------------------------------------------------|
Eb|-----------------------------------------------------|
And every time I hold you, the things I never told you, seem to come easily 
'Cause you're everything to me 

Eb|--3----3---3-0--0--3--5------------------------------|
Bb|--3----3---3-1--3--5--7------------------------------|
Gb|--0----0---0-2--4--5--7------------------------------|
Db|--0----0-----2--4--5--7------------------------------|
Ab|--x----x-----0-----3--5------------------------------|
Eb|--3----3---------------------------------------------| (2x)
You're everything to me, you're everything to me 

Eb|--3----3----0--0--0-----3----------------------------|
Bb|--3----3----1--3--1-----3----------------------------|
Gb|--0----0----2--4--0-----0----------------------------|
Db|--0----0----2--4--2-----0----------------------------|
Ab|--x----x----0-----3-----x----------------------------|
Eb|--3----3----------------3----------------------------|
Tap to rate this tab
# A B C D E F G H I J K L M N O P Q R S T U V W X Y Z