Song name
# A B C D E F G H I J K L M N O P Q R S T U V W X Y Z

Kiss - Hate tab

*****************************
"Hate" - KISS
From the album "Carnival of Souls"

tabbed by Colby Dove
*****************************

For this song KISS id tuned to C#
low to high (C#, F#, B, E, G#, C#)

riff 1
|-----------------------------------------|
|-----------------------------------------|
|-----------------------------------------|
|-----------------------------------------|
|-----------------------------------------|
|--3-5-3-0--5-6-5-0--6-7-6-0--5-6-5-0-----|
           p.m.-------------------------}

riff 2
|-------------------------------------------|
|-------------------------------------------|
|-------------------------------------------|
|--2--3--4--5-------------------------------|
|--2--3--4--5-------------------------------|
|--0--1--2--3-------------------------------|

riff 3
|-------------------------------------------|
|--8--------------------8-------------------|
|--7--------------------7-------------------|
|--6--------------------6-------------------|
|--7--------------------7-------------------|
|-----0-0-0-0-0-0-0-0-----0-0-0-0-0-0-0-0---|
     p.m.--------------}  p.m.--------------}

riff 4
|-----------------------------------------|
|-----------------------------------------|
|-----------------------------------------|
|--2-5-5-2-5-5-2-5-5-2-5-5----------------|
|--2-5-5-2-5-5-2-5-5-2-5-5----------------|
|--0-3-3-0-3-3-0-3-3-0-3-3----------------|

riff 5
|----------------------------------|
|----------------------------------|
|----------------------------------|
|----------------------------------|
|----------------------------------|
|--5-3-5-3-2~--3--5-3-5-3-2~-------|

riff 6
|-----------------------------------------------------|
|-----------------------------------------------------|
|-----------------------------------------------------|
|------------------------------------------------7----|
|------------------------------------------------7----|
|--8-8-8-8-8-8-8-8-7-7-7-7-7-7-7-7-6-6-6-6-6-6-6-5----|        

riff 7
|------------------------------------------------------------|
|------------------------------------------------------------|
|------------------------------------------------------------|
|----------2------------8------------2-----------(5)\4-3-----|
|----------2------------8------------2-----------(5)\4-3-----|
|--3-5-3-0-0---3-5-3-0--6---3-5-3-0--0---3-5-3-0-(3)\2-1-----|

riff 8
|--------------------------------------------|
|--------------------------------------------|
|--------------------------------------------|
|--2-----------------------------------------|
|--2-----------------------------------------|
|--0-----------------------------------------|
Tap to rate this tab
# A B C D E F G H I J K L M N O P Q R S T U V W X Y Z