Song name
# A B C D E F G H I J K L M N O P Q R S T U V W X Y Z

Kiss - Hooligan tab

Hooligan
KISS
Love Gun
1977
EADGBE


---------------|------------------|------------------------------|
---------------|------------------|------------------------------|
--9-9--9--9-9-9|--9--9-9-9--9--9-9|---14--12\11--7-9-------------|
--9-9--9--9-9-9|--9--9-9-9--9--9-9|---14--12\11--7-9-------------|
--7-7--7--7-7-7|--7--7-7-7--7--7-7|------------------------------|
---------------|------------------|------------------------------|

that is the intro and the verse riffs
then theres
   oh so bad.....
--------------|------------------------------------------------|
--------------|------------------------------------------------|
-------9~---7~|------------------------------------------------|
-------9~---7~|------------------------------------------------|
-------7~---5~|------------------------------------------------|
--------------|------------------------------------------------|

then  play first bar of intro/verse riff once

then
so sad but it true...
---------------|------------------------------------------------|
---------------|------------------------------------------------|
----9---12---7-|------------------------------------------------|
----9---12---7-|------------------------------------------------|
----7---10---5-|------------------------------------------------|
---------------|------------------------------------------------|

thats all i got so far and that is the first and second verses. except theres a pre 
at the end of the second verse which i havent got
any comments or have the rest of the tab email me at jacob_cumminz@hotmail.com
rock on
Tap to rate this tab
# A B C D E F G H I J K L M N O P Q R S T U V W X Y Z