Song name
# A B C D E F G H I J K L M N O P Q R S T U V W X Y Z

Kiss - Beth tab

eb|----------------------------------------------------------------------------------------|
Bb|-----------------------------8-8---8-10-10h8---8-10---------14b-14b~-14b-14-12--121314--|
Gb|-----5---5-7b~-7b-7-5-----/9-----9-----------9------------------------------------------|
Db|--/7---7--------------------------------------------------------------------------------|
Ab|----------------------------------------------------------------------------------------|
Eb|----------------------------------------------------------------------------------------|

----------------------------------------------------------------------------------------|
-12-14h12-14h12----12-------------------------------------------------------------------|
----------------14----14-12h14h12----12-------------------------------------------------|
----------------------------------14----14-13-12-10-12h10-8-10h8------------------------|
----------------------------------------------------------------------------------------|
----------------------------------------------------------------------------------------|

-------------------------------------------------------------------------|
--------------------------------131415----15b-15-13----13~~~-------------|
-----12-12----14b-12-14~~---------------------------14-------------------|
-/14-------14------------------------------------------------------------|
-------------------------------------------------------------------------|
------------------------------------------------------------------12\----|

on the 131415 repeat 3x

on the 121314 repeat 4x
Tap to rate this tab
# A B C D E F G H I J K L M N O P Q R S T U V W X Y Z