Song name
# A B C D E F G H I J K L M N O P Q R S T U V W X Y Z

Kiss - Modern Day Delilah tab

-------------------------------------------------------------------------------
			 Modern Day Delilah - Kiss
-------------------------------------------------------------------------------
Tabbed by:mcneelyman98


Tuning: Half step down

e|--------------------------------------------------------------|
B|--------------------------------------------------------------|
G|-------------------------5----------------------7-------------|
D|-------------------------5----------------------7-------------|
A|-10/-----------5h7---5h7----7---------5h7---5h7----7----------|
E|-10/---0-0----------------------0-0--------------------0------|

e|-----------------------|
B|-----------------------|
G|-----------7-----------|  X2
D|-----------7-----------|
A|-5h7---5h7---7---------|
E|-----------------0-----|

easy as pie     i could only listen to the demo so this is all i got
Tap to rate this tab
# A B C D E F G H I J K L M N O P Q R S T U V W X Y Z