Song name
# A B C D E F G H I J K L M N O P Q R S T U V W X Y Z

Kiss - Do You Love Me drum

(Verse 1) 
Loose Hi-hats
HH|X-X-X-X-X-X-X-X-|
SN|----0--------0--| x11
 B|0-------0-0-----|
   1 + 2 + 3 + 4 +

CC|--------X---X---|
HH|X-X-X-X---------|
SN|----0-----------|
 B|0-------0---0---|
	   1 + 2 + 3 + 4 +

Chorus)
SN|----0-------0---|----0-------0---|
 B|0-------0-0-----|0-0-0-0-0-0-0-0-| x4
   1 + 2 + 3 + 4 +  1 + 2 + 3 + 4 +

(Verse 2) 
HH|X-X-X-X-X-X-X-X-|
SN|----0--------0--| x7
 B|0-------0-0-----|
   1 + 2 + 3 + 4 +

CC|--------X---X---|
HH|X-X-X-X---------|
SN|----0-----------|
 B|0-------0---0---|
   1 + 2 + 3 + 4 +

(Chorus)
SN|----0-------0---|----0-------0---|
 B|0-------0-0-----|0-0-0-0-0-0-0-0-| x4
   1 + 2 + 3 + 4 +  1 + 2 + 3 + 4 +


(Verse 3)
HH|X-X-X-X-X-X-X-X-|
SN|----0--------0--| x7
 B|0-------0-0-----|
   1 + 2 + 3 + 4 +

CC|--------X---X---|
HH|X-X-X-X---------|
SN|----0-----------|
 B|0-------0---0---|
        1 + 2 + 3 + 4 +

(Chorus)
SN|----0-------0---|----0-------0---|
 B|0-------0-0-----|0-0-0-0-0-0-0-0-| x4
   1 + 2 + 3 + 4 +  1 + 2 + 3 + 4 +

(Bridge)
HH|X-X-X-X-X-X-X-X-|
SN|----0--------0--| x8
 B|0-------0-0-----|
   1 + 2 + 3 + 4 +

CC|X---------------|
HH|----X-X-X-X-X-X-|
SN|----0-------0---|
 B|0-------0-0-----|
   1 + 2 + 3 + 4 + 

CC|------------X---|
HH|X-X-X-X---------|
SN|----0---0000----|
 B|0-----------0---|
   1 + 2 + 3 + 4 + 

(Outro)
SN|----0-------0---|----0-------0---|
 B|0-------0-0-----|0-0-0-0-0-0-0-0-| x9
   1 + 2 + 3 + 4 +  1 + 2 + 3 + 4 +

RC|----0-------0---|----0-------0---|
SN|----0-------0---|----0-------0---| (Repeat till 
 B|0-------0-0-----|0-0-0-0-0-0-0-0-|  fade out)
   1 + 2 + 3 + 4 +  1 + 2 + 3 + 4 +

	
Tap to rate this tab
 
# A B C D E F G H I J K L M N O P Q R S T U V W X Y Z