Song name
# A B C D E F G H I J K L M N O P Q R S T U V W X Y Z

Kiss - When Lightning Strikes tab

KISS
When Lightning Strikes (T. Thayer)
SONIC BOOM

Tune Down Half-step

Eb|----------------------------------------------------|
Bb|----------------------------------------------------|
Gb|----------------------------------------------------|
Db|----------------------------------------------------|
Ab|----------------------------------------------------|
Eb|----------------------------------------------------|


Intro
Eb|----------------------------------------------------|
Bb|----------------------------------------------------|
Gb|------------------7---------------------------------|
Db|--5/7-5-----------7---------------------------------|
Ab|--------7-6-5-3-0-5---------------------------------|
Eb|----------------------------------------------------|
                      let ring

Riff 1
Eb|----------------------------------------------------|
Bb|----------------------------------------------------|
Gb|--2--------5/7--7--7--------------------------------|
Db|--2--------5/7--7--7-------4/5--5--------5--0--7----|
Ab|--0--------3/5--5--5-------4/5--5--------5--0--7----|
Eb|---------------------------2/3--3--------3-----5----|

Eb|----------------------------------------------------|
Bb|----------------------------------------------------|
Gb|----------------------------------------------------|
Db|----------------------------------------------------|
Ab|-3-3p^0---------------------------------------------|
Eb|--------3p^0----------------------------------------|



Riff 2
Eb|----------------------------------------------------|
Bb|----------------------------------------------------|
Gb|--2--------5/7--7--7--------------------------------|
Db|--2--------5/7--7--7-------4/5--5--------5--0--7----|
Ab|--0--------3/5--5--5-------4/5--5--------5--0--7----|
Eb|---------------------------2/3--3--------3-----5----|

Eb|----------------------------------------------------|
Bb|----------------------------------------------------|
Gb|----------------------------------------------------|
Db|----------------------------------------------------|
Ab|-----------3-3p^0-----------------------------------|
Eb|-0h^3h^-5---------3p^0------------------------------|




Riff 3 (pre-chorus)
Eb|----------------------------------------------------|
Bb|----------------------------------------------------|
Gb|--2--------5/7--7--7--------------------------------|
Db|--2--------5/7--7--7-------4/5--5-------------------|
Ab|--0--------3/5--5--5-------4/5--5-------------------|
Eb|---------------------------2/3--3-------------------|
						    let ring

Eb|----------------------------------------------------|
Bb|----------------------------------------------------|
Gb|-5--7-7--7-7---7-7-7-7----9-9-9---9--9-9------------|
Db|-5--7-7--9-7---7-7-9-7----9-9-11--9--9-9------------|
Ab|-3--5-5---------------------------------------------|
Eb|----------------------------------------------------|

Eb|----------------------------------------------------|
Bb|----------------------------------------------------|
Gb|----------------------------------------------------|
Db|----------------------------------------------------|
Ab|----------5b7-r5-3----------------------------------|
Eb|-0h^3p^0--------------------------------------------|



CHORUS
Eb|----------------------------------------------------|
Bb|----------------------------------------------------|
Gb|----7--7--------------------------------------------|
Db|-5--7--7--------------------------------------------|
Ab|-5--5--5---------------5b7-r5-3---------------------|
Eb|-3-----------3--5-5--0------------------------------|

Eb|----------------------------------------------------|
Bb|----------------------------------------------------|
Gb|----7--7--------------------------------------------|
Db|-5--7--7--------------------------------------------|
Ab|-5--5--5--------------------------------------------|
Eb|-3-----------3--5-5--0-3b5-r3--3b5-r3---------------|

Eb|----------------------------------------------------|
Bb|----------------------------------------------------|
Gb|----7--7--------------------------------------------|
Db|-5--7--7--------------------------------------------|
Ab|-5--5--5---------------5b7-r5-3---------------------|
Eb|-3-----------3--5-5--0------------------------------|

Eb|----------------------------------------------------|
Bb|----------------------------------------------------|
Gb|----7--7------------------------7-------------------|
Db|-5--7--7--------5/7-5-----------7-------------------|
Ab|-5--5--5--------------7-6-5-3-0-5-------------------|
Eb|-3--------------------------------------------------|


Tap to rate this tab
# A B C D E F G H I J K L M N O P Q R S T U V W X Y Z