Song name
# A B C D E F G H I J K L M N O P Q R S T U V W X Y Z

Kiss - Within drum

Within
Kiss
Psycho Circus


Verse 1 (0.53)
SN|--------------0-|
 B|0---0---0---0---| x12
	   1 + 2 + 3 + 4 + 

Chorus
CC|X---------------|----------------|----------------|
HH|----X-X-X-X-X-X-|X-X-X-X-X-X-X-X-|X-X-X-X-X-X-X-X-|
SN|----0-------0---|----0-------0---|----0-------0---|
 B|0-------0-------|0-------0-------|0-------0-------|
   1 + 2 + 3 + 4 +  1 + 2 + 3 + 4 +  1 + 2 + 3 + 4 + 

CC|----------------|X---------------|----------------|
HH|X-X-X-X-X-X-X-X-|----X-X-X-X-X-X-|X-X-X-X-X-------|
SN|----0-------0---|----0-------0---|----0---------0-|
 B|0-------0-------|0-------0-------|0---0---0---0---|
   1 + 2 + 3 + 4 +  1 + 2 + 3 + 4 +  1 + 2 + 3 + 4 + 

Verse 2
HH|X---X---XXX-X---|
SN|--------------0-| x14
 B|0---0---0---0---|
   1 + 2 + 3 + 4 + 
	
T1|0-0-0-0-0-0-0-0-|
T2|0-0-0-0-0-0-0-0-|
   1 + 2 + 3 + 4 + 

Chorus
CC|X---------------|----------------|----------------|
HH|----X-X-X-X-X-X-|X-X-X-X-X-X-X-X-|X-X-X-X-X-X-X-X-|
SN|----0-------0---|----0-------0---|----0-------0---|
 B|0-------0-------|0-------0-------|0-------0-------|
   1 + 2 + 3 + 4 +  1 + 2 + 3 + 4 +  1 + 2 + 3 + 4 + 

CC|----------------|X---------------|----------------|
HH|X-X-X-X-X-X-X-X-|----X-X-X-X-X-X-|X-X-X-X-X-------|
SN|----0-------0---|----0-------0---|----0---------0-|
 B|0-------0-------|0-------0-------|0---0---0---0---|
   1 + 2 + 3 + 4 +  1 + 2 + 3 + 4 +  1 + 2 + 3 + 4 +

Bridge
HH|X-X-X-X-X-X-X-X-|
 B|0---0---0---0---| x8
   1 + 2 + 3 + 4 + 

Rest 2 measures

Solo
RC|X-X-X-X-X-X-X-X-|
SN|--0-------0-----| x7
   1 + 2 + 3 + 4 + 
	
CC|----------------|X---------------|
RC|X-X-X-X-X-X-----|--X-X-X-X-X-X-X-|
T1|------------00--|----------------|
T2|--------------00|----------------|
SN|--0-------0-----|--0-------0-----|
   1 + 2 + 3 + 4 +  1 + 2 + 3 + 4 + 

RC|X-X-X-X-X-X-X-X-|
SN|--0-------0-----| x8
   1 + 2 + 3 + 4 +

B|0---0---0---0---| x6
   1 + 2 + 3 + 4 + 

CC|X---------------|----------------|----------------|
HH|----X-X-X-X-X-X-|X-X-X-X-X-X-X-X-|X-X-X-X-X-X-X-X-|
SN|----0-------0---|----0-------0---|----0-------0---|
 B|0-------0-------|0-------0-------|0-------0-------|
   1 + 2 + 3 + 4 +  1 + 2 + 3 + 4 +  1 + 2 + 3 + 4 + 

CC|----------------|X---------------|----------------|
HH|X-X-X-X-X-X-X-X-|----X-X-X-X-X-X-|X-X-X-X-X-------|
SN|----0-------0---|----0-------0---|----0---------0-|
 B|0-------0-------|0-------0-------|0---0---0---0---|
   1 + 2 + 3 + 4 +  1 + 2 + 3 + 4 +  1 + 2 + 3 + 4 +

T1|0-0-0-0-0-0-0-0-|
T2|0-0-0-0-0-0-0-0-|
   1 + 2 + 3 + 4 + 
	
CC|X---------------|----------------|----------------|
HH|----X-X-X-X-X-X-|X-X-X-X-X-X-X-X-|X-X-X-X-X-X-X-X-|
SN|----0-------0---|----0-------0---|----0-------0---|
 B|0-------0-------|0-------0-------|0-------0-------|
   1 + 2 + 3 + 4 +  1 + 2 + 3 + 4 +  1 + 2 + 3 + 4 + 

CC|----------------|X---------------|----------------|
HH|X-X-X-X-X-X-X-X-|----X-X-X-X-X-X-|X-X-X-X-X-------|
SN|----0-------0---|----0-------0---|----0---------0-|
 B|0-------0-------|0-------0-------|0---0---0---0---|
   1 + 2 + 3 + 4 +  1 + 2 + 3 + 4 +  1 + 2 + 3 + 4 +

T1|0-0-0-0-0-0-0-0-|
T2|0-0-0-0-0-0-0-0-|
   1 + 2 + 3 + 4 +

CC|X---------------|----------------|----------------|
HH|----X-X-X-X-X-X-|X-X-X-X-X-X-X-X-|X-X-X-X-X-X-X-X-|
SN|----0-------0---|----0-------0---|----0-------0---|
 B|0-------0-------|0-------0-------|0-------0-------|
   1 + 2 + 3 + 4 +  1 + 2 + 3 + 4 +  1 + 2 + 3 + 4 + 

CC|----------------|X---------------|----------------|
HH|X-X-X-X-X-X-X-X-|----X-X-X-X-X-X-|X-X-X-X-X-------|
SN|----0-------0---|----0-------0---|----0---------0-|
 B|0-------0-------|0-------0-------|0---0---0---0---|
   1 + 2 + 3 + 4 +  1 + 2 + 3 + 4 +  1 + 2 + 3 + 4 +

CC|X---------------|----------------|----------------|
HH|----X-X-X-X-X-X-|X-X-X-X-X-X-X-X-|X-X-X-X-X-X-X-X-|
SN|----0-------0---|----0-------0---|----0-------0---|
 B|0-------0-------|0-------0-------|0-------0-------|
   1 + 2 + 3 + 4 +  1 + 2 + 3 + 4 +  1 + 2 + 3 + 4 + 

CC|----------------|X---------------|----------------|
HH|X-X-X-X-X-X-X-X-|----X-X-X-X-X-X-|X-X-X-X-X-------|
SN|----0-------0---|----0-------0---|----0---------0-|
 B|0-------0-------|0-------0-------|0---0---0---0---|
   1 + 2 + 3 + 4 +  1 + 2 + 3 + 4 +  1 + 2 + 3 + 4 +
	
(Repeat until fade out)
Tap to rate this tab
 
# A B C D E F G H I J K L M N O P Q R S T U V W X Y Z