Song name
# A B C D E F G H I J K L M N O P Q R S T U V W X Y Z

Kiss - Russian Roulette tab

-------------------------------------------------------------------------------
			     Russian Roulette - KISS
-------------------------------------------------------------------------------
Tabbed by: Boudewijn
Email: boudieboom@hotmail.com

Tuning: Half step down

Gonna finish it today, hope you don't mind

Listen to the song to get the correct timing (:
I haven't tabbed the solo yet, working on that (:

Intro

e|------------------------|
B|------------------------| 
G|------------------------|
D|999-777-555-44----------|
A|777-555-333-22----------| 2 times
E|---------------3-2-0----|

Verse                                  Piece between verses

e|----------23----3------------| e |----------------|
B|----2-----33----0-----2------| B |----------------|
G|----2-----22----0-----2------| G |----------------|
D|----2-----00-2--0-----2------| D |----------------|
A|----0--------2--2-----0------| A |--------3-0-----|
E|3bd----------0--3-3bd--------| E |-0-3-0------3-0-|




************************************

| /   slide up
| \   slide down
| h   hammer-on
| p   pull-off
| ~   vibrato
| +   harmonic
| x   Mute note
| b   Bend
| pb  Pre-bend
| br  Bend release
| pbr Pre-bend release
| brb Bend release bend

************************************
Tap to rate this tab
# A B C D E F G H I J K L M N O P Q R S T U V W X Y Z