Song name
# A B C D E F G H I J K L M N O P Q R S T U V W X Y Z

Kiss - View From A Hill tab

VIEW FROM A HILL
The Chameleons
---------------------------------------------------------
Tabbed by: Klaus Hurskainen
klaus.hurskainen@elisanet.fi

ELECTRIC VERSION
Tuning: F#BEAC#F# (1 step higher)

part1

Dave's guitar, intro
  B-Bsus4-B, Ebm, B-Bsus4, B, A
|-000000000000000-000000000-5-------000000000000000-000000000-3--------|
|-555555555555555-555555555-----5---555555555555555-333333333-----3----|
|-666666666666776-666666666---6---6-666666666666776-444444444---4---4--|
|-777777777777777-666666666---------777777777777777-555555555----------|
|----------------------------------------------------------------------|
|----------------------------------------------------------------------|


Dave's guitar, verse
B-Bsus4-B, Ebm
|-000000000000000-000000000-5-------|
|-555555555555555-555555555-----5---|
|-666666666666776-666666666---6---6-|
|-777777777777777-666666666---------|
|-----------------------------------|
|-----------------------------------|

Dave's guitar, verse pt. 2
E-Esus4-E, Abm
|--------------------------|
|-10(x12)-10-10-10-10(x16)-|
|-11(x12)-13-13-11-11(x16)-|
|-12(x12)-12-12-12-11(x16)-|
|--------------------------|
|--------------------------|

Reg's guitar, verse
|-----------------------------------------------------------------|
|-----------------------------------------------------------------|
|-------------------------------------------------------6-6-6-----|
|-------------------------------------------------4-4-4-------4-4-|
|-------------------------2-2-4-4---------------------------------|
|-5-5-5-5-5-5-5-5-5-5-5-5---------0-0-0-0-0-0-0-0-----------------|

Reg's guitar, verse pt. 2
|----------------------------------|
|----------------------------------|
|-------6-6-6-------------2-2-2-2--|
|-------------4-4-4-2-2-2----------|
|-2-2-2----------------------------|
|----------------------------------|

part2

Reg's guitar pt. 1 (partly muted)
Bm
|-------0-----------0-----|
|-------1-----------1-----|
|-------2-----------2-----|
|-x-x-x-2-x-x-x-x-x-2-x-x-|	X4
|-x-x-x-0-x-x-x-x-x-2-x-x-|
|-------------------------|

Reg's guitar pt. 2 (partly muted)
Bm, G, A...till end
|-------0-----------0-----------------------3-----|
|-------1-----------1-----------1-----------0-----|
|-------2-----------2-----------2-----------0-----|
|-x-x-x-2-x-x-x-x-x-2-x-x-x-x-x-3-x-x-------0-----|
|-x-x-x-0-x-x-x-x-x-2-x-x-x-x-x-3-x-x-x-x-x-2-x-x-|
|-------------------------------------x-x-x-3-x-x-|

Dave's guitar pt. 1
Bm, F#m   X2
|-0------------0-----0------------0-----0---0-----0-|
|-1--------------1---0--------------0---1-----1---0-|
|-2----------------2-0----------------0-2-------2-0-|
|-2------------------2------------------2---------2-|
|-0------------------2------------------0---------2-|
|---------------------------------------------------|

Dave's guitar pt. 2
|---------------------------|
|---------------------------|
|-2--5--4--0-----2--0-------|
|-------------2--------2----|   X2
|-------------------------3-|
|---------------------------|

Dave's guitar pt. 3
|-0------------------------|
|-1--------------3---------|
|-2------2-4-55----4--0----|
|-2----------------------2-|   X2
|-0------------------------|
|--------------------------|

...pt. 2   X2

Dave's guitar pt. 4
Bm, G, A..till end
|-------------------------------------------------|
|-------1-----------1-----------1-----------3-----|
|---2-------2---2-------2---2-------2---4-------4-|
|-----2---2-------2---2-------3---3-------4---4---|
|-0-----------0-----------3-----------5-----------|
|-------------------------------------------------|

END
---------------------------------------------------------

ACOUSTIC VERSION
standard tuning

part 1

A - Asus4 - A, C#m

D - Dsus4 - D, F#m

part 2

Am, F, G

---------------------------------------------------------
For lyrics go to: www.thechameleons.com
Tap to rate this tab
 
# A B C D E F G H I J K L M N O P Q R S T U V W X Y Z