Song name
# A B C D E F G H I J K L M N O P Q R S T U V W X Y Z

Kiss - Say Yeah tab

Hey everywone!


Here comes the tab!

Song:Say yeah
Artist: Kiss
Album: Sonic boom

      INTRO PART 1
|---------------|
|---------------|
|---------------|
|---2-2---------|
|---0-0-2~------|
|-------0~------|

                             INTRO PART 2
|----------------------0-----------------------0--------------|
|-----0------0-----------0-----0-----0-----------0------------|
|-------0------0---0-------0-----0-----0---0-------0----------|
|----------5---------7-------------5---------7----------------|
|---2------3-----5---5-------2-----3-----5---5----------------|
|---0------------3-----------0-----------3--------------------|
Tap to rate this tab
 
# A B C D E F G H I J K L M N O P Q R S T U V W X Y Z