Song name
# A B C D E F G H I J K L M N O P Q R S T U V W X Y Z

Kiss - Love Gun tab

eb|-----------------------------------------------------------------|
Bb|-----------------------------------------------------------------|
Gb|--------------------------------------------------12----12-14-12-|
Db|-----------------------10----10-12-10-12-14-12-14----14----------|
Ab|-----10----10-12-10-12----12-------------------------------------|
Eb|--12----12-------------------------------------------------------|

eb|----------------------------------------19p17----19p17-19-19/22-19-22-22b~~----|
Bb|-------------15----15-17-15-17-20-17-20-------20-------------------------------|
Gb|-14-16-14-16----16-------------------------------------------------------------|
Db|-------------------------------------------------------------------------------|
Ab|-------------------------------------------------------------------------------|
Eb|-------------------------------------------------------------------------------|

eb|------------------------------------------------------------------|
Bb|------------------------------------------------------------------|
Gb|-------12----12-14b-14b-14b-14b---12h14p12----12--14b~~---14p12~~~|
Db|-12/14----14-------------------------------14---------------------|
Ab|------------------------------------------------------------------|
Eb|------------------------------------------------------------------|

eb|-----------------------------12--------12--15p12-14p12----12---|
Bb|-15b-15b-15b-15bp12-------12--------12-----------------15------|
Gb|----------------------14b-------14b----------------------------|
Db|---------------------------------------------------------------|
Ab|---------------------------------------------------------------|
Eb|---------------------------------------------------------------|

eb|---15p12----12--------------------------------------------------------|
Bb|---------15----15p12-15p12----12--------------------------------------|
Gb|---------------------------14----14p12-14p12----12--------------------|
Db|---------------------------------------------14----14p12-14p12----12\-|
Ab|---------------------------------------------------------------14-----|
Eb|----------------------------------------------------------------------|
Tap to rate this tab
 
# A B C D E F G H I J K L M N O P Q R S T U V W X Y Z