Kiss - Hold Me Touch Me tab

"KISS"
1978 PAUL STANLEY
HOLD ME TOUCH ME
TAB DE CESAR C.S AZAB

INTRO:

1--2--2--2----3--3----5--5---9-----3----|
2--3---3--3----5--5----7-----------0----|
3--2----2--2----4--4----7---------------|
4--0------------------------------------|
5--0------------------------------------|
6---------------------------------------|


D                          Em
Though I know that you are sleepin'
F#m                           Bm
Girl, there's somethin' I must say
Em     F#m
Though the road may wind
Bm      Em            A
My love will find the way
D                        Em
Many the miles have come between us
F#m                       Bm
And the days, they come and go
Em             F#m
Still with all we feel
Bm      F#m    Em        A
It never really shows

CORO

D    F#m   Em   A     F#m         Bm        Em        A
Hold me,  touch me , and think of me when we're apart
D    F#m                Em        A
Hold me, baby won't you touch me
F#m          Bm             Em
And think of me here in the night
         A
And you know it'll be alright

1--2--2--2---2--2--2--3--3--3-5--|
2--3---3--3---3--3-----3--3---5--|
3--2----2--2---4--4-----4--4--6--|
4--0--------------------------7--|
5--0--------------------------7--|
6--0--------------------------5--|

D                     Em
Though the time apart seems endless
F#m                       Bm
All my thoughts remain with you
Em            F#m
I believe one day
Bm            F#m           Em     A
We'll make our dreams come true
D                   Em
Our goodbyes go on forever
F#m                       Bm
And with all that we may say
Em             F#m
Till tomorrow comes
Bm         F#m        Em   A
We'll dream of yesterday

CORO

D     F#m                Em      A
Hold me, baby won't you touch me
F#m          Bm             Em   A
And think of me when we're apart
D     F#m                 Em     A
Hold me, baby won't you touch me
F#m           Bm                Em
And think of me here in the night
            A
And you know it'll be alright

SOLO

1--------------------------------------------------------------------------|
2--15----14-15---14---14---------19--17------14---------17--15--14---------|
3------------------------14-16-----------------16-14--------------16-14----|
4--------------------------------------------------------------------------|
5--------------------------------------------------------------------------|
6--------------------------------------------------------------------------|


1----------19--17--19--17----22-21-19-17-19--------------------------------|
2--19--17------------------------------------19-17-15-17-------15-17-15----|
3---------------------------------------------------------14-16------------|
4--------------------------------------------------------------------------|
5--------------------------------------------------------------------------|
6--------------------------------------------------------------------------|

1-----------------19-------------------------------------------------------|
2--19-20-19-17--17-------19-17-15---------20-19-17--17---20-19-17--15------|
3-------------19------------------16-14-----------19-------------19--------|
4--------------------------------------------------------------------------|
5--------------------------------------------------------------------------|
6--------------------------------------------------------------------------|

1-----------------19---21------15-14-------15-14--15-------22----|
2--19191919-17-15--------19---------17-15-------17---------------|
3----------------------------------------------------------------|
4----------------------------------------------------------------|
5----------------------------------------------------------------|
6----------------------------------------------------------------|

BIEN VA DEDICADO CON TODO MI AMOR Y CARIÑO A MI LINDA NOVIA QUE AMO COMO UN LOCO Y A LA 
QUIERO COMO MI COMPAÑERA POR SIEMPRE, MI HERMOSA AZAB, ES MI MOTOR Y RECUERDA MI NIÑA 
"HAREMOS REALIDAD NUESTROS SUEÑOS" TE AMO, POR SIEMPRE JUNTOS.

ES UN GRAN TEMA Y EL SOLO ES REALMENTE HERMOSO, DISFRUTENLO.
Tap to rate this tab
 
# A B C D E F G H I J K L M N O P Q R S T U V W X Y Z