Kiss - Deuce tab

this is one of the best songs ever!!!

kiss (album=kiss)
deuce

sings

x=mute
v=vibrato
b=bend
h=hammer on
p=pull of

i dont know how intro goes sorry :(


main riff ( after intro )

e|-----------------------------|
B|-----------------------------|
G|----------5-7--5----7-5------|  4X
D|----7--7--5-7--5----7-5-7-5--|
A|----7--7----------------7-5--|
E|-----------------------------|

verse

e|------------------------------------------|
B|------------------------------------------|
G|-----------------------5-7--5----7-5------|  2X
D|--2------5--7----7--7--5-7--5----7-5-7-5--|
A|--0------3--5----7--7----------------7-5--|
E|------------------------------------------|
    GET UP...

pre chorus

e|------------------------------------------|
B|------------------------------------------|
G|------------------------------------------|
D|--2------5--7----5-2----------------------|
A|--0------3--5----3-0----------------------|
E|------------------------------------------|

chorus

e|------------------------------------------|
B|------------------------------------------|
G|------------------------------------------| 2X
D|------------------------------------------|
A|--3----3-4-5------------------------------|
E|-------------3-4-5------------------------|

e|--------------------|
B|--------------------|
G|--------------------|
D|--------------------|
A|--3------5-5-5------|
E|--1------3-3-3------|
                 HE s WORTH OF DEUCE!!!

main riff 4X

verse 2

thx for looking this tab rate it

tabbed by jere96
Tap to rate this tab
 
# A B C D E F G H I J K L M N O P Q R S T U V W X Y Z