Song name
# A B C D E F G H I J K L M N O P Q R S T U V W X Y Z

Kiss - God Gave Rock And Roll To You chords

Highlighted       Show chord diagrams
KISS – God Gave Rock N Roll To You (ripped by Filip “Sackooo” Cazacu)

I was so tired of only finding inaccurate chord versions of this musical master piece, 
I decided that something must be done. Here you have my chord version of the song, and I 
you appreciate this version.

The song if very fragmented into many parts and scales, so I wrote every part on the top 
the document. Further down is the text and a compilation of the “hardest” chords.

Intro part 1
|E	|Esus4+5 |D	|Dsus4+5 |
|C#	|C#sus4+5|F#	|F#sus4+5|
|E	|Esus4+5 |

Intro part 2
|C#	|F#m	|F#/A#	|Bm	|
|E	|A	|F#	|B	|
|G#	|C#	|F#	|F#	|
|F#	|

Intro part 3
|B	|F#/A#	|G#m	|D#m	|
|E	|G   A	|B	|D   F# |
|B	|F#/A#	|G#m	|D#m	|
|E	|G   A	|B	|B	|

Verse 1
|E	|A	|E	|A	|
|G	|D	|D	|
|E	|A	|E	|A	|
|G	|D	|F#	|F#	|

Chorus 1
|B	|F#/A#	|G#m	|D#m	|
|E	|G   A	|B	|D   F#	|
|B	|F#/A#	|G#m	|D#m	|
|E	|G   A	|B	|D   A	|

Verse 2
|E	|A	|E	|A	|
|G	|D	|D	|
|E	|A	|E	|A	|
|G	|D	|F#	|F#	|
|G#	|Bb	|

Chorus 2
|D#	|A#/D	|Cm	|Gm	|
|G#	|B   C#	|D#	|F#  A#	|
|D#	|A#/D	|Cm	|Gm	|
|G#	|B   C#	|

Bridge part 1
|D#	|G#  C#	|D#	|G#	|
|F#	|C#/F	|
|D#	|G#  C#	|D#	|G#	|
|F#	|C#/F	|E A#/D#|
|G#	|G#	|C#	|C#	|

Chorus 3
|G#	|D#/G	|Fm	|Csus4+5|
|C#	|E   F#	|G#	|G#	|
|G#	|D#/G	|Fm	|Csus4+5|
|C#	|E   F#	|G#	|G#	|
|E	|F#	|F#	|

Bridge part 2
|F	|A#	|G#	|C#	|
|F#	|F#	|F#	|F#	|

Chorus 4
|B	|F#/A#	|G#m	|D#m	|
|E	|G   A	|B	|D   F#	|
|B	|F#/A#	|G#m	|D#m	|
|E	|G   A	|


|B	|F#/A#	|G#m	|D#m	|
|E	|G   A	| x6 times


God gave rock and roll to you, gave rock and roll to you
Put it in the soul of everyone
Do you know what you want? You don't know for sure
You don't feel right, you can't find a cure
And you're gettin' less than what you're lookin' for

You don't have money or a fancy car
And you're tired of wishin' on a falling star
You gotta put your faith in a loud guitar

Chorus:
God gave rock and roll to you, gave rock and roll to you
Gave rock and roll to everyone (oh yeah)
God gave rock and roll to you, gave rock and roll to you
Put it in the soul of everyone

"Now listen"
If you wanna be a singer, or play guitar
Man, you gotta sweat or you won't get far
Cause it's never too late to work nine-to-five

You can take a stand, or you can compromise
You can work real hard or just fantasize
But you don't start livin' till you realize - "I gotta tell ya!"

God gave rock and roll to you, gave rock and roll to you
Gave rock and roll to everyone
God gave rock and roll to you, gave rock and roll to you
Put it in your'e Soul

(Instrumental break)

God gave rock and roll to you (to everyone he gave the song to be sung)
Gave rock and roll to you, gave rock and roll to everyone

God gave rock and roll to you (to everyone he gave the song to be sung)
Gave rock and roll to you, saved rock and roll for everyone
Saved rock and roll

	E			Esus4+5
e|----------------------------------------------|
B|------9------------------------10-------------|
G|------9------------------------9--------------|
D|------9------------------------10-------------|
A|------7------------------------7--------------|
E|----------------------------------------------|

	D			Dsus4+5
e|----------------------------------------------|
B|------7------------------------8--------------|
G|------7------------------------7--------------|
D|------7------------------------8--------------|
A|------5------------------------5--------------|
E|----------------------------------------------|

	C#			C#sus4+5
e|----------------------------------------------|
B|------6------------------------7--------------|
G|------6------------------------6--------------|
D|------6------------------------7--------------|
A|------4------------------------4--------------|
E|----------------------------------------------|

	F#  			F#sus4+5
e|------2------------------------2--------------|
B|------2------------------------3--------------|
G|------3------------------------4--------------|
D|------4------------------------4--------------|
A|------4------------------------2--------------|
E|------2------------------------2--------------|

	F#/A#		A#/D	       D#/G
e|-------------------------------------3--------|
B|------2---------------6--------------4--------|
G|------3---------------7--------------3--------|
D|------4---------------8--------------5--------|
A|------1---------------5--------------6--------|
E|-------------------------------------3--------|
Tap to rate this tab
 
# A B C D E F G H I J K L M N O P Q R S T U V W X Y Z