Song name
# A B C D E F G H I J K L M N O P Q R S T U V W X Y Z

Kiss - Rock Bottom tab

                            Intro Rock Bottom
E|-4---6---7---6---4---6---7---6---4---6---7---6---4---6---7---6----|
B|--5---5---5---5---5---5---5---5---4---4---4---4---4---4---4---4---|
G|---6---6---6---6---6---6---6---6---4---4---4---4---4---4---4---4--|
D|------------------------------------------------------------------|
A|------------------------------------------------------------------|
E|------------------------------------------------------------------|

E|-4---6---7---6---6---7---9--7---4---6---7---6---4--6---7---6------|
B|--5---5---5---5---7---7---7--7---4---4---4---4---4--4---4---4-----|
G|---4---4---4---4---6---6---6--6---4---4---4---4---4--4---4---4----|
D|------------------------------------------------------------------|
A|------------------------------------------------------------------|
E|------------------------------------------------------------------|
0:22-2nd guitar is joining here-
E|-4---6---7---6---4---6---7---6---4---6---7---6---4---6---7---4----|
B|--5---5---5---5---5---5---5---5---4---4---4---4---4---4---4---4---|
G|---4---4---4---4---4---4---4---4---4---4---4---4---4---4---4---4--|
D|------------------------------------------------------------------|
A|------------------------------------------------------------------|
E|------------------------------------------------------------------|

E|-4---6---7---6---6---7---9---7---4---6---7---6---4---6---7---4----|
B|--5---5---5---5---7---7---7---7---4---4---4---4---4---4---4---4---|
G|---4---4---4---4---6---6---6---6---4---4---4---4---4---4---4---4--|
D|------------------------------------------------------------------|
A|------------------------------------------------------------------|
E|------------------------------------------------------------------|

E|-4---6---7---6---4---6---7---6---4---6---7---6---4---6---7---4----|
B|--5---5---5---5---5---5---5---5---4---4---4---4---4---4---4---4---|
G|---4---4---4---4---4---4---4---4---4---4---4---4---4---4---4---4--|
D|------------------------------------------------------------------|
A|------------------------------------------------------------------|
E|------------------------------------------------------------------|

E|-4---6---7---6---6---7---9---7---4---6---7---6---4---6---7---4----|
B|--5---5---5---5---7---7---7---7---4---4---4---4---4---4---4---4---|
G|---4---4---4---4---6---6---6---6---4---4---4---4---4---4---4---4--|
D|------------------------------------------------------------------|
A|------------------------------------------------------------------|
E|------------------------------------------------------------------|

1:06
E|-11---12---14---12---6---7---9---7---4---6---7---6---4---6---7---6----|
B|--12---12---12---12---7---7---7---7---4---4---4---4---4---4---4---4---|
G|---11---11---11---11---6---6---6---6---4---4---4---4---4---4---4---4--|
D|----------------------------------------------------------------------|
A|----------------------------------------------------------------------|
E|----------------------------------------------------------------------|

E|-11---12---14---12---6---7---9---7---4---5---7---5---6---7---9---7------|
B|--12---12---12---12---7---7---7---7---5---5---5---5---7---7---7---7-----|
G|---11---11---11---11---6---6---6---6---4---4---4---4---6---6---6---6----|
D|------------------------------------------------------------------------|
A|------------------------------------------------------------------------|
E|------------------------------------------------------------------------|
E|-4---6---7---6---4---6---7---6------------------------------------------|
B|--4---4---4---4---4---4---4---4-----------------------------------------|
G|---4---4---4---4---4---4---4---4----------------------------------------|
D|------------------------------------------------------------------------|
A|------------------------------------------------------------------------|
E|------------------------------------------------------------------------|

E|-4---6---7---6---4---6---7---6---4---6---7---6---4---6---7---4--------|
B|--5---5---5---5---5---5---5---5---4---4---4---4---4---4---4---4-------|
G|---4---4---4---4---4---4---4---4---4---4---4---4---4---4---4---4------|
D|----------------------------------------------------------------------|
A|----------------------------------------------------------------------|
E|----------------------------------------------------------------------|

E|-4---6---7---6---6---7---9---7---4---6---7---6-------4----------------|
B|--5---5---5---5---7---7---7---7---4---4---4---4------4----------------|
G|---4---4---4---4---6---6---6---6---4---4---4---4-----4----------------|
D|-----------------------------------------------------6----------------|
A|-----------------------------------------------------6----------------|
E|-----------------------------------------------------4----------------|
Tap to rate this tab
# A B C D E F G H I J K L M N O P Q R S T U V W X Y Z