Song name
# A B C D E F G H I J K L M N O P Q R S T U V W X Y Z

Kiss - Deuce tab

This is my tab of the KISS Klassic, Deuce
I
eb|--------------------------------------------------------------------------|
Bb|14--14-15-14-15-14----------10-----------12-------------------------------|
Gb|14--14-14-14-14-14--10-10---10--12-12----12-------------------------------|
Db|14--14-16-14-16-14--10-10---10--12-12----12-14p12-------------------------|
Ab|--------------------10-10h12----12-12h14---------14-----------------------|
Eb|--------------------------------------------------------------------------|
II
eb|--------------------------------------------------------------------------|
Bb|14--14-15-14-15-14--------------------------------------------------------|
Gb|14--14-14-14-14-14--10-10----10-------------------------------------------|
Db|14--14-16-14-16-14--10-10----10-------------------------------------------|
Ab|--------------------10-10h12-8--------------------------------------------|
Eb|--------------------------------------------------------------------------|


Fig. 1                           Fig. 2
eb|-------------------------|    eb|------------------------------------|
Bb|-------------------------|    Bb|------------------------------------|
Gb|--------5-7-5--5-7-5-----|    Gb|2---5--7-5---------5-7-5--5-7-5-----|
Db|5-7-7-7-5-7-5--5-7-5-7-5-|    Db|2---5--7-5-5-7-7-7-5-7-5--5-7-5-7-5-|
Ab|5-7-7-7-5-5-5--5-5-5-7-5-|    Ab|0---3--5-3-5-7-7-7-5-5-5--5-5-5-7-5-|
Eb|5-5-5-5--------------5-5-|    Eb|-----------5-5-5-5--------------5-5-|


Fig. 3
eb|----------------|
Bb|----------------|
Gb|2---5--7-5-2----|
Db|2---5--7-5-2----|
Ab|0---3--5-3-0----|
Eb|----------------|


Fig. 4              Fig. 5
eb|------------|    eb|--------|
Bb|------------|    Bb|--------|
Gb|------------|    Gb|--------|
Db|------------|    Db|3---533-|
Ab|3--345------|    Ab|3---533-|
Eb|------345-0-|    Eb|1---333-|


Can't remember the solo but you just play Fig. 1 through it.

the order it goes in is
I
II
Fig. 1 x4
Fig. 2 x2
Fig. 3 x1
Fig. 4 x2
Fig. 5 x1
Fig. 1 x4
Fig. 2 x2
Fig. 3 x1
Fig. 4 x2
Fig. 5 x1

During Ace's solo, Fig. 1 is played x8,

Fig. 4 x2
Fig. 5 x1

Then

Fig. 1 is played a bunch of times with Ace soloing over it and the song fades out.
Tap to rate this tab
# A B C D E F G H I J K L M N O P Q R S T U V W X Y Z