Song name
# A B C D E F G H I J K L M N O P Q R S T U V W X Y Z

Kiss - Detroit Rock City tab

2:18 - Ace
e|-----------------------------------------------------------------|
B|-------3----4p3---4p3---------3p4-3------------------------------|
G|-----3---5------5-----5p3---3-------3p1-0-1-------5p3---5p3------|
D|---5--------------------------------------------------6-----6p5--|
A|-----------------------------------------------------------------|
E|-----------------------------------------------------------------|


2:29 - Ace and Paul
e|-----------------------------------------------------------------|
B|-------3----4p3---4p3---------3p4-3------------------------------|
G|-----3---5------5-----5p3---3-------3p1-0-1----1/0-3/4--5--------|
D|---5-------------------------------------------------------------|
A|-----------------------------------------------------------------|
E|-----------------------------------------------------------------|

2:40 - Ace and Paul
e|-----------------------------------------------------------------|
B|-------6----8p6---8p6---------6p8-6------------------------------|
G|-----7---8------8-----8p7---7-------7p5-4-5----5/4-6/7--5--------|
D|---8-------------------------------------------------------------|
A|-----------------------------------------------------------------|
E|-----------------------------------------------------------------|

This was very hard to figure out and I hope you like it!
I am pretty sure this is how it's done.  :)
Tap to rate this tab
# A B C D E F G H I J K L M N O P Q R S T U V W X Y Z