Song name
# A B C D E F G H I J K L M N O P Q R S T U V W X Y Z

Kiss - Ladies In Waiting tab

Ladies in Waiting by KISS
From the album Dressed To Kill
Transcriber: Unknown
--------------------------------------------------------------------



     repeat                                                              "So
e:---------------------------------------------------------------------------|
B:----------------------------------------------------------------3----------|
G:------------------------------------------------------7-7------2---2-------|
D:---9----4--5----7-7--9----4--5----7-7--9----4---5-5---5-5--2--2---2--------|
A:---7----2--3----5-5--7----2--3----5-5--7----2---3-3--------0--------0----3-|
E:-------------------------------------------------------------------------1-|




  you move..."                        "Ladies in waitin'.."
e:---------------------------------------------------------------------------|
B:---------------------------------------------------------------------------|
G:------------------------------------7-7-7-7-9-7-7---------------------7-7-9|
D:-------------------8-8-8-8--10------5-5-5-5-5-5-5---7-7-9-7-7---5-5---5-5-5|
A:3-3-3---5-5-5-5----6-6-6-6--8-----------------------5-5-5-5-5---3-3--------|
E:1-1-1---3-3-3-3------------------------------------------------------------|





e:----------------------------------------------------12------------10--10---|
B:----------------------------------------------------15B--12--13---13B-13B--|
G:-7-7---------------------------------5-5-5-3-5-----------14B-15B-----------|
D:-5-5---7-7-9-7-7---5-5---3-3-5-3-3---5-5-5-5-3-----------------------------|
A:-------5-5-5-5-5---3-3---1-1-1-1-1---3-3-3-3-3-----------------------------|
E:---------------------------------------------------------------------------|





e:12---14--15----------------------------------------------------------------|
B:15B--17B-18B---5---7--8----10---12---13---15--17/20-20/17---17/20-20/17----|
G:---------------7b--9b-10b--12b--14b--15b--17b------------19------------19--|
D:---------------------------------------------------------------------------|
A:---------------------------------------------------------------------------|
E:---------------------------------------------------------------------------|


                      
                      
                      
e:---------------------|
B:20b-20b-20b~-20b~-20~|
G:---------------------|
D:---------------------|
A:---------------------|
E:---------------------|
Tap to rate this tab
# A B C D E F G H I J K L M N O P Q R S T U V W X Y Z