Song name
# A B C D E F G H I J K L M N O P Q R S T U V W X Y Z

Kiss - Hooligan tab

Hooligan by KISS
From the album Love Gun
Transcriber: Unknown
--------------------------------------------------------------------



     intro &
e:------------------------------------------------------------------------|
B:------------------------------------------------------------------------|
G:---10-10---10--10-10--10---10--10-10--10---10--10-10---10---8/7---------|
D:---10-10---10--10-10--10---10--10-10--10---10--10-10---8----6/5--8/10---|
A:---8--8----8---8--8---8----8---8--8---8----8---8--8--------------6/8----|
E:------------------------------------------------------------------------|




   "And I'm oh so sad.."                                 "So sad but.."
e:---------------------------------------------------------------------------|
B:---------------------------------------------------------------------------|
G:-----------3~------------------10-10---10-10-10-10---10--5--------8--------|
D:-----------3~----------6~------10-10---10-10-10-10---10--5---6----8--------|
A:-----------1~----------6~------8--8----8--8--8--8----8---3---6----6--------|
E:-----------------------4~------------------------------------4-------------|





e:---------------------------------------------------------------------------|
B:16b~~--13/16/13------------------------------------------------------------|
G:---------------15--15b-15-13-------13-15b~--15-13-15--13/15/13-------------|
D:----------------------------15-15-----------------------------15-13---13-15|
A:---------------------------------------------------------------------------|
E:---------------------------------------------------------------------------|


                           
                           
            to verse 2
e:------------------------|
B:-----------------16b~~--|
G:-13--15b/15/13----------|
D:--------------15--------|
A:------------------------|
E:------------------------|




   "I've got a.."                                 "Dropped out.."
e:---------------------------------------------------------------------------|
B:---------------------------------------------------------------------------|
G:----------------3~----------10-10--10-10-10-10----3~-----------------------|
D:----------------3~----6~----10-10--10-10-10-10----3~-----------3~-----5-5-5|
A:----------------1~----6~----8--8---8--8--8--8-----1~-----------3~-----5-5-5|
E:----------------------4~---------------------------------------1~-----3-3-3|




                                 "I'm a hooligan.."              repeat
e:-------------------------------------------------------------------------|
B:-------------------------------------------------------------------------|
G:------------5-5-5-5-5-5-5-5------------10~---10-12-12b---12--10/8----8---|
D:-5-5-5-5-5--5-5-5-5-5-5-5-5---------------------------------------10-----|
A:-5-5-5-5-5--3-3-3-3-3-3-3-3----------------------------------------------|
E:-3-3-3-3-3---------------------------------------------------------------|




    solo                           etc
e:---------------------------------------------------------------------------|
B:---------------------------------------------------------------------------|
G:---x15b-x15b-x15b-x15b-x15b-x15b-x15b---15-15-15-15-15/13------------13-13/|
D:-----------------------------------------------------------13/15-15--------|
A:---------------------------------------------------------------------------|
E:---------------------------------------------------------------------------|





e:---------------------------------------------------------------------------|
B:-------------------4/1---------4b------------------------------------------|
G:15-13----1/3b~~-------3--3/1-------3b~-3b-3b-3b-3b-3b-3b--3b/3/1--1~----15b|
D:----------------------------3-----------------------------------3----------|
A:---------------------------------------------------------------------------|
E:---------------------------------------------------------------------------|





e:---------------------------------------------------16b--16-13/16-----------|
B:13-15-13----13-16-16b--13/16/13----13----------------------------16b--16/13|
G:---------15b-------------------15------13/15/13----------------------------|
D:-----------------------------------------------15--------------------------|
A:---------------------------------------------------------------------------|
E:---------------------------------------------------------------------------|


                                                

                             outtro    repeat
e:------------------------|--------------------|
B:--13---------16---------|--------------------|
G:15----15b~~~~~~15b-15---|--5~---3~--3-3------|
D:------------------------|--3~---1~--0-1------|
A:------------------------|--------------------|
E:------------------------|--------------------|





e:---------------------------------------------------------------------------|
B:-------------13-------------------------13b~----13-----13---------13b~--13b|
G:---10~---12b~~~12b/12--10----10---12-10------------10-----10--10-----------|
D:--------------------------12-----------------------------------------------|
A:---------------------------------------------------------------------------|
E:---------------------------------------------------------------------------|


       
       
       
e:-----|
B:~-13~|
G:-----|
D:-----|
A:-----|
E:-----|
Tap to rate this tab
# A B C D E F G H I J K L M N O P Q R S T U V W X Y Z