Song name
# A B C D E F G H I J K L M N O P Q R S T U V W X Y Z

Kiss - Escape From The Island tab

Escape From The Island by KISS
From the album: Music From "The Elder"
Transcriber: Unknown
--------------------------------------------------------------------



     intro w/siren                                       riff 1
e:---------------------------------------------------------------------------|
B:----10-10-10~------10-10-10~----------------------------------------0------|
G:----9--9--9~-------9--9--9~----------------------------2-x-2-2-2-2--0--2--3|
D:----7--7--7~-------7--7--7~----------------------------2-x-2-2-2-2--0--2--3|
A:----0--0--0~-------0--0--0~----------------------------0-x-0-0-0-0-----0--1|
E:---------------------------------x~~~~~~~~~~~~~~~--------------------------|
                                     pick slide




e:---------------------------------------------------------------------------|
B:---------------------------------------------------------------------------|
G:~-----3--3---3--3------2-x-2-2-2-2-2--0------------------------2-x-2-2-2-2-|
D:~-----3--3---3--3------2-x-2-2-2-2-2--0--3~----3--3---3--3-----2-x-2-2-2-2-|
A:~-----1--1---1--1------0-x-0-0-0-0-0--x--3~----3--3---3--3-----0-x-0-0-0-0-|
E:--------------------------------------3--1~----1--1---1--1-----------------|




                                                         end riff 1       
e:---------------------------------------------------------------------------|
B:-0-------------------------------------------------------------------------|
G:-0--2--3~---3--3---3--3------2-x-2-2-2-2-2--0------------------------------|
D:-0--2--3~---3--3---3--3------2-x-2-2-2-2-2--0--3~-----------------------5--|
A:----0--1~---1--1---1--1------0-x-0-0-0-0-0--x--3~-----------------------5--|
E:--------------------------------------------3--1~-----x~~~~~~~~~~~~~----3--|




  riff 2                                            palm mute
e:---------------------------------------------------------------------------|
B:----------------------------------------------x-x---x-x-x-x----------------|
G:----------------------------------------------x-x---x-x-x-x----------------|
D:---5-5-----5-----5-5-5-----5-----5-5-----5----x-x---x-x-x-x---------------3|
A:---5-5-----5-----5-5-5-----5-----5-5-----5--------------------5--6--5-----3|
E:---3-3-----3-----3-3-3-----3-----3-3-----3--------------------3--4--3-----1|




                                        mute
e:---------------------------------------------------------------------------|
B:-------------3/5---3/5---3--------x-x-x-x-x-x------------x-x-x-x--------x-x|
G:------5~-----3/5---3/5---3--------x-x-x-x-x-x----3--3----x-x-x-x--------x-x|
D:~-----5~-----3/5---3/5---3----5---x-x-x-x-x-x----3--3----x-x-x-x----5---x-x|
A:~-----3~----------------------5------------------1--1---------------5------|
E:~-----------------------------3-------------------------------------3------|


                                
                                
          end riff 2-to riff 1
e:-----------------------------|
B:-x-x-x-x---------------------|
G:-x-x-x-x---------------------|
D:-x-x-x-x---5-6-5-------------|
A:-----------5-6-5-------------|
E:-----------3-4-3-------------|




       solo
e:---------------------------------------------------------------------------|
B:---------------------------------------------------------------------------|
G:---------------------------------------------------------------------------|
D:--------------------------------------------------------------------------5|
A:------3~--4~--5~--6~--7~--8~--10~--12~--14~--15/14-15/14-15/14-15/x---5/7--|
E:---------------------------------------------------------------------------|





e:---------------------------------------------------------------8/7/5-------|
B:--------------------------------------------8------------------------8/7/5-|
G:---5--7b~-7b-7b-7b-7b-7b-7b-7b-7/5--5--7b~~~~~7b/7--5/7/5--5---------------|
D:/7--------------------------------7----------------------7-----------------|
A:---------------------------------------------------------------------------|
E:---------------------------------------------------------------------------|





e:8/7/5-------8/7/5-------8/7/5----------------------------------------------|
B:------8/7/5-------8/7/5-------8/7/5----------------------------------------|
G:-------------------------------------7b-7---7b-7-5----7-5----5-------------|
D:----------------------------------------------------------7----7-5---5/7--5|
A:---------------------------------------------------------------------------|
E:---------------------------------------------------------------------------|





e:---------------------------------------------------------------------------|
B:---------------------------------------------------------------------------|
G:-------------------------------2~--3~------4-x-4-4-4-4---2--4--5~---5--5---|
D:---------------------3~---5~---2~--3~------4-x-4-4-4-4---2--4--5~---5--5---|
A:--7-6--5--3--0--3----3~---5~---0~--1~------2-x-2-2-2-2---0--2--3~---3--3---|
E:---------------------1~---3~-----------------------------------------------|





e:---------------------------------------------------------------------------|
B:---------------------------------------------------------------------------|
G:5--5------4-x-4-4-4-4-4--2-----------------------4-x-4-4-4-4--2--4--5~----5|
D:5--5------4-x-4-4-4-4-4--2--5~---5--5---5--5-----4-x-4-4-4-4--2--4--5~----5|
A:3--3------2-x-2-2-2-2-4--0--5~---5--5---5--5-----2-x-2-2-2-2--0--2--3~----3|
E:----------------------------3~---3--3---3--3-------------------------------|





e:---------------------------------------------------------------------------|
B:---------------------------------------------------------------------------|
G:--5---5--5------4-x-4-4-4-4-4--2--------------------2-----2-2-----2-----2-2|
D:--5---5--5------4-x-4-4-4-4-4--2--5~----------------2-----2-2-----2-----2-2|
A:--3---3--3------2-x-2-2-2-2-2--0--5~----------------0-----0-0-----0-----0-0|
E:----------------------------------3~---x~~~~~~~~~--------------------------|




                              mute
e:-----------------------------------------------3~--------------------------|
B:-----------------------------------------------3~---------5/7---5/7---5----|
G:-2-----2----2-2-----2---x-x-x-x-x-x----2-3-2---0~----7~---5/7---5/7---5----|
D:-2-----2----2-2-----2---x-x-x-x-x-x----2-3-2---0~----7~---5/7---5/7---5----|
A:-0-----0----0-0-----0------------------0-1-0---x-----5~--------------------|
E:-----------------------------------------------3~--------------------------|





e:---------------------------------------------------------------------------|
B:---------------------------------------------------------------------------|
G:-2--x-x-x-x-x-x---5--5---x-x-x-x---2--x-x-x-x-x-x-x---2-3-2-----2--x-x-x-x-|
D:-2--x-x-x-x-x-x---5--5---x-x-x-x---2--x-x-x-x-x-x-x---2-3-2-----2--x-x-x-x-|
A:-0----------------3--3-------------0------------------0-1-0-----0----------|
E:---------------------------------------------------------------------------|





e:---------------------------------------------------------------------------|
B:---------------------------------------------------------------------------|
G:x-x---5--5---x-x-x-x----2--x-x-x-x-x-x--2-3-2-----2-3-2----2-3-2-3--4-5-4-5|
D:x-x---5--5---x-x-x-x----2--x-x-x-x-x-x--2-3-2-----2-3-2----2-3-2-3--4-5-4-5|
A:------3--3--------------0---------------0-1-0-----0-1-0----0-1-0-1--2-3-2-3|
E:---------------------------------------------------------------------------|


                                         


e:---------------------------------------|
B:---------------------------------------|
G:--6-7-6-7---8~---8~---8--8--8---9~----2|
D:--6-7-6-7---8~---8~---8--8--8---9~----2|
A:--4-5-4-5---6~---6~---6--6--6---7~----0|
E:---------------------------------------|
Tap to rate this tab
 
# A B C D E F G H I J K L M N O P Q R S T U V W X Y Z