Song name
# A B C D E F G H I J K L M N O P Q R S T U V W X Y Z

Kiss - Cmon And Love Me tab

C'mon and Love Me by KISS
From the album Dressed to Kill
Transcriber: Unknown
--------------------------------------------------------------------



                                                            repeat
e:------------------------------------------------------------------|
B:------------------------------------------------------------------|
G:-----------------------------------9-9-9-9-9-9-----9--9-9---------|
D:-6-6-6-6-6-6-----6--6-6------4-----7-7-7-7-7-7--9--7--7-7------4--|
A:-4-4-4-4-4-4--6--4--4-4---4--2-----0-0-0-0-0-0--7--0--0-0---4--2--|
E:--------------4-----------2---------------------0-----------2-----|


                                                              

    fill
e:-------------------------------------12b-12-12b-12-14-14b~-|
B:--------------------------------12~------------------------|
G:--------------9-11---11b/11/9------------------------------|
D:-9-9/11~--9/11---------------11----------------------------|
A:-----------------------------------------------------------|
E:-----------------------------------------------------------|




   "She's a dancer..."
e:---------------------------------------------------------------------------|
B:---------------------------------------------------------------------------|
G:---------------------------------------------------------------------------|
D:--6-6-6-6-6-6-----6-6-6------4----6-6-6-6-6-6-----6-6-6------4----2---2-2-2|
A:--4-4-4-4-4-4--6--4-4-4---4--2----4-4-4-4-4-4--6--4-4-4---4--2----0---0-0-0|
E:---------------4----------2--------------------4----------2----------------|




                            repeat                            "Baby baby dont
e:---------------------------------------------------------------------------|
B:---------------------------------------------------------------------------|
G:---------------------------------------------------------------------------|
D:-2-2-2---4---4-4-4-4-4-4----6-6-6-6-6-6-----6-6-6---6---8---9-9-11-9-11-9-9|
A:-0-0-0---2---2-2-2-2-2-2----4-4-4-4-4-4--6--4-4-4---4---6---7-7-7--7-7--7-7|
E:-----------------------------------------4---------------------------------|




   you.  .."
e:---------------------------------------------------------------------------|
B:---------------------------------------------------------------------------|
G:---------------------------------------------------------------------------|
D:-11-9-9-11------------------------------9-9-11-9-11-9-9-11-9-9-11----------|
A:-7--7-7-7----9-9-11-9-11-9-9-11-9-9-11--7-7-7--7-7--7-7-7--7-7-7---4-4-4-4-|
E:-------------7-7-7--7-7--7-7-7--7-7-7------------------------------2-2-2-2-|


                
                
                
e:-------------|
B:-------------|
G:-------------|
D:-------------|
A:4-4-4-4---6--|
E:2-2-2-2---4--|




                                                                    repeat 1x
e:------------------------------------------------------9-----9---9-----9----|
B:---9-----9---9-----9---9---9-----9--------------------12b---12b-12b---12b--|
G:---11b---11b-11b---11b-11b-11b---11b/11/9--------9/11----------------------|
D:-----------------------------------------11--9/11--------------------------|
A:---------------------------------------------------------------------------|
E:---------------------------------------------------------------------------|


                               
                               
  
e:9----9-----------------------|
B:12b-12b-12---12b/12/12b/12---|
G:---------------------------9~|
D:-----------------------------|
A:-----------------------------|
E:-----------------------------|
Tap to rate this tab
 
# A B C D E F G H I J K L M N O P Q R S T U V W X Y Z